Pearl Jam - Smile Chords

Main Riff
Main Riff
Main Riff
 
No chord
    
Standard guitar tuning:
E
A
D
G
B
E
No capo

Intro fill

|------------------10-------------------------------------------------|
|-----------10h12-----------------------------------------------------|
|------7--------------------------------------------------------------|
|--7h9----------------------------------------------------------------|
|---------------------------------------------------------------------|
|---------------------------------------------------------------------|
2nd verse:
|---------------------------------------------------------------------|
|---------------------------------------------------------------------|
|------------------2-2-----4-4----------------------------------------|
|-------2--2--2-2--2-2-4-4-4-4----------------------------------------|
|--2-2--2--2--0-0------2-2-----s6-4-2---------------------------------|
|--0-0--------------------------------0-------------------------------|
|---------------------------------------------------------------------|
|---------------------------------------------------------------------|
|-----------------2-2-----4-4---7---7-9-7-----------------------------|
|------2--2--2-2--2-2-4-4-4-4-----9-------9s--------------------------|
|--2-2-2--2--0-0------2-2---------------------------------------------|
|--0-0----------------------------------------------------------------|

Chorus

|-3--3--------------2-2-----------------------------------------------|
|-3--3-----1--------3-3-----------------------------------------------|
|-0--0-----0--------2-2-----------------------------------------------|
|-0--0-----2--0h2p0-0-0-----------------------------------------------|
|-2--2-2h3-3----------------------------------------------------------|
|-3--3----------------------------------------------------------------|
after chorus:
|---------------------------------------------------------------------|
|---------------------------------------------------------------------|
|-9-9-9-9-9-9-9-9s16-16-----------------------------------------------|
|-7-7-7-7-7-7-7-7s14-14-----------------------------------------------|
|---------------------------------------------------------------------|
|---------------------------------------------------------------------|

Solo

|---------------------------------------------------------------------|
|---------------------------------------------------------------------|
|-----7-9-7-----7-9~~-----7-9-7-----7-9~~-----7-9-7-----7-------------|
|-7h9-------7h9-------7h9-------7h9-------7h9-------7h9---------------|
|---------------------------------------------------------------------|
|---------------------------------------------------------------------|
|-12-10--12-10-------12-10--------------------------------------------|
|------------------7-------------7------------------------------------|
|--------------7h9-----------7h9--------------------------------------|
|---------------------------------------------------------------------|
|---------------------------------------------------------------------|
|---------------------------------------------------------------------| (leads into chorus)
at end: E A B A w/:
|---------------------------------------------------------------------|
|---------------------------------------------------------------------|
|---------------------------------------------------------------------|
|---------------------------------------------------------------------|
|------5-7-5-----5--7~------------------------------------------------|
|--5h7-------5h7------------------------------------------------------|