Perfect - Nie P Acz Ewka Chords

 
         
         
         
         
X
1
2
3
5 fr
         
         
         
         
1
3
4
2
1
1
2 fr
         
         
         
         
X
1
1
1
4
         
         
         
         
X
X
1
2
2 fr
         
         
         
         
3
2
1
1
1
4
7 fr
         
         
         
         
X
X
1
3
4
3

9 fr
         
         
         
         
X
4
3
1
2
1
12 fr
         
         
         
         
X
1
3
3
3
1

Fm

variations
         
         
         
         
1
3
4
1
1
1
4 fr
         
         
         
         
X
X
1
3
4
2
         
         
         
         
X
X
3
1
1
1
9 fr
         
         
         
         
X
1
3
4
2
1
6 fr
         
         
         
         
X
4
3
1
2
X
         
         
         
         
2
3
1
4 fr
         
         
         
         
X
4
3
1
2
1
7 fr
         
         
         
         
X
1
4
4
4
X
2 fr
         
         
         
         
X
X
1
2
4
3
4 fr
         
         
         
         
4
3
1
2
1
7 fr
         
         
         
         
X
1
3
3
3
1

9 fr
         
         
         
         
4
3
1
1
1
X
9 fr
         
         
         
         
3
2
1
1
1
4
12 fr
         
         
         
         
1
3
4
2
1
1
4 fr
         
         
         
         
X
         
         
         
         
X
1
3
4
2
1
7 fr
         
         
         
         
1
3
4
1
1
1
         
         
         
         
X
1
3
4
2
X
7 fr
         
         
         
         
X
X
3
1
1
1
9 fr
         
         
         
         
X
X
1
3
4
2
11 fr
         
         
         
         
X
4
3
1
2
X
         
         
         
         
X
X
1
3
2
2 fr
         
         
         
         
X
4
3
1
2
1
5 fr
         
         
         
         
X
1
2
3
4
1
5 fr
         
         
         
         
X
1
4
4
4
X
7 fr
         
         
         
         
4
3
1
1
1
X
7 fr
         
         
         
         
3
2
1
1
1
4

10 fr
         
         
         
         
1
3
4
2
1
1
12 fr
         
         
         
         
X
X
1
3
4
3
5 fr
         
         
         
         
X
X
No chord
Standard guitar tuning:
E
A
D
G
B
E
No capo

Verse

              A                         Fm
E1|-----------0----0---------|-----------2----2---------|
H2|-----------------2--------|-----------------2--------|
G3|---------2--------2-------|---------2--------2-------|
D4|--------------------------|--------------------------|
A5|-----0--------------------|--------------------------|
E6|--------------------------|-----2--------------------|
              E                          E
E1|-----------0----0---------|-----------0----0---------|
H2|-----------------0--------|-----------------0--------|
G3|---------1--------1-------|---------1--------1-------|
D4|--------------------------|--------------------------|
A5|--------------------------|--------------------------|
E6|-----0--------------------|-----0--------------------|  x4
And now chorus:
             Bm                           D
E1|-----------2----2---------|-----------2----2---------|
H2|-----------------3--------|-----------------3--------|
G3|---------4--------4-------|---------2--------2-------|
D4|--------------------------|-----0--------------------|
A5|-----2--------------------|--------------------------|
E6|--------------------------|--------------------------|
           A       E                     Fm
E1|-----------0--------0-----|-----------2----2---------|
H2|--------------------------|-----------------2--------|
G3|---------2--------1-------|---------2--------2-------|
D4|--------------------------|--------------------------|
A5|-----0--------------------|--------------------------|
E6|--------------0-----------|-----2--------------------|
              Bm                         D
E1|-----------2----2---------|-----------2----2---------|
H2|-----------------3--------|-----------------3--------|
G3|---------4--------4-------|---------2--------2-------|
D4|--------------------------|-----0--------------------|
A5|-----2--------------------|--------------------------|
E6|--------------------------|--------------------------|
               A                         A
E1|-----------0----0---------|--------------------------|
H2|-----------------2--------|--------------------------|
G3|---------2--------2-------|--------------------------|
D4|--------------------------|--------------------------|
A5|-----0--------------------|-----0--------------------|

Intro

A, Fm, E, E x 2

1st: A Nie płacz Ewka bo tu Fmmiejsca brak Ena twe babskie łzy E A po ulicy miłość Fmhula wiatr Ewśród rozbitych szyb E A patrz poeci śliczni Fmprawdy sens Eroztrwonili w grach E A w półlitrówkach pustych FmSOS Ewysyłają w świat E

Chorus

Żegnam Bmwas jDuż wiem nie załatwię wAszystkich pEilnych sFmpraw idę Bmsam właśnie tDam gdzie czekają mAnie E Tam przyjaciół kilku mam od lat , dla nich zawsze śpiewam dla nich gram jeszcze raz zegnam was nie spotkamy się 2nd: Proza życia to przyjaźni kat pęka cienka nić telewizor meble mały fiat oto marzeń szczyt hej prorocy moi z gniewnych lat obrastacie w tłuszcz już was w swoje szpony dopadł szmal zdrada płynie z ust Chorus x 2