Phil Wickham - Messiah Chords

 
         
         
         
         
X
1
3
4
2
1
7 fr
         
         
         
         
1
3
4
1
1
1
         
         
         
         
X
1
3
4
2
X
7 fr
         
         
         
         
X
X
3
1
1
1
9 fr
         
         
         
         
X
X
1
3
4
2
11 fr
         
         
         
         
X
4
3
1
2
X
         
         
         
         
X
1
2
3
5 fr
         
         
         
         
1
3
4
2
1
1
2 fr
         
         
         
         
X
1
1
1
4
         
         
         
         
X
X
1
2
2 fr
         
         
         
         
3
2
1
1
1
4
7 fr
         
         
         
         
X
X
1
3
4
3

9 fr
         
         
         
         
X
4
3
1
2
1
12 fr
         
         
         
         
X
1
3
3
3
1

Fm

variations
         
         
         
         
1
3
4
1
1
1
4 fr
         
         
         
         
X
X
1
3
4
2
         
         
         
         
X
X
3
1
1
1
9 fr
         
         
         
         
X
1
3
4
2
1
6 fr
         
         
         
         
X
4
3
1
2
X
         
         
         
         
2
3
3 fr
         
         
         
         
X
X
2
4
1
7 fr
         
         
         
         
X
1
3
4
2
1
2 fr
         
         
         
         
X
X
1
3
4
2
3 fr
         
         
         
         
X
3
2
4
1
4 fr
         
         
         
         
X
4
3
1
2
X

12 fr
         
         
         
         
1
3
4
1
1
1
         
         
         
         
X
X
1
3
2
2 fr
         
         
         
         
X
4
3
1
2
1
5 fr
         
         
         
         
X
1
2
3
4
1
5 fr
         
         
         
         
X
1
4
4
4
X
7 fr
         
         
         
         
4
3
1
1
1
X
7 fr
         
         
         
         
3
2
1
1
1
4

10 fr
         
         
         
         
1
3
4
2
1
1
12 fr
         
         
         
         
X
X
1
3
4
3
5 fr
         
         
         
         
X
X
         
         
         
         
3
2
4
3 fr
         
         
         
         
1
3
4
2
1
1
         
         
         
         
2
1
3
4
3 fr
         
         
         
         
X
X
3
2
1
1
5 fr
         
         
         
         
X
X
1
3
4
3
7 fr
         
         
         
         
X
4
3
1
2
1

10 fr
         
         
         
         
X
1
2
3
4
X
10 fr
         
         
         
         
X
1
3
3
3
1
12 fr
         
         
         
         
3
2
1
1
1
4
No chord
D guitar tuning
No capo
Intro/Verse 1

Bm A Fm Em D

d|--------------------------------------| d|----------| A|--------------------------------------| A|----------| F|--9--------8--------4--------2--------| F|--1-------| C|--9--------9--------6--------4--------| [3x] C|--2-------|
G|--7-[16x]--9-[16x]--7-[16x]--4-[16x]--| G|--2-[4x]--|
D|--9--------7--------4--------2--------|       D|--0-------|

Chorus 1

    G        Bm      A       G       A       D
d|----------------------------------------------------|
A|----------------------------------------------------|
F|--6--------9-------8-------6-------8-------1--------|
C|--7--------9-------9-------7-------9-------2--------|
G|--7-[16x]--7-[8x]--9-[8x]--7-[8x]--9-[8x]--2-[16x]--|
D|--5--------9-------7-------5-------7-------0--------|

Verse 2

    Bm       A       Fm      Em                    D
d|--------------------------------------|       d|----------|
A|--------------------------------------|       A|----------|
F|--9--------8--------4--------2--------|       F|--1-------|
C|--9--------9--------6--------4--------| [2x]  C|--2-------|
G|--7-[16x]--9-[16x]--7-[16x]--4-[16x]--| G|--2-[4x]--|
D|--9--------7--------4--------2--------|       D|--0-------|

Chorus

    G        Bm      A       G       A       Bm       D
d|------------------------------------------------------------|
A|------------------------------------------------------------|
F|--6--------9-------8-------6-------8-------9--------1-------|
C|--7--------9-------9-------7-------9-------9--------2-------|  [2x]
G|--7-[16x]--7-[8x]--9-[8x]--7-[8x]--9-[8x]--7-[12x]--2-[4x]--|last time skip
D|--5--------9-------7-------5-------7-------9--------0-------|the C#m chord

Bridge

   Em       D       G       A      Em      Bm       A       Fm
d|-------------------------------------------------------------------|
A|-------------------------------------------------------------------|
F|--2-------1-------6-------8-------2-------9-------8--------4-------|
C|--4-------2-------7-------9-------4-------9-------9--------6-------|
G|--4-[8x]--2-[8x]--7-[9x]--9-[7x]--4-[8x]--7-[8x]--9-[12x]--7-[4x]--|
D|--2-------0-------5-------7-------2-------9-------7--------4-------|
[Back to Chorus]
Tag

D G

d|-------------------| A|-------------------| F|--1--------6-------| C|--2--------7-------| [4x]
G|--2-[13x]--7-[3x]--|
D|--0--------5-------|
End

Bm A Fm Em

d|-----------------------------0--| A|-----------------------------0--| F|--9--------8--------4--------2--| C|--9--------9--------6--------4--|
G|--7-[16x]--9-[16x]--7-[16x]--4--|
D|--9--------7--------4--------2--|
| / slide up | \ slide down | h hammer-on | p pull-off | ~ vibrato | + harmonic | x Mute note | b Bend | pb Pre-bend | br Bend release | pbr Pre-bend release | brb Bend release bend