Pink Floyd - Ballad Of Bill Hubbard Chords

 
No chord
Standard guitar tuning:
E
A
D
G
B
E
No capo
e-|--------------|---------------|---------------|--10----13-----|
B-|--------------|---------------|---------------|---------------|
G-|--------------|---------------|---------------|---------------|
D-|--------------|---------------|---------------|---------------|
A-|--------------|---------------|---------------|---------------|
E-|--------------|---------------|---------------|---------------|
e-|--10----11----|--10----13-----|--10----13p11--|---------------|
B-|--------------|---------------|---------------|---13-15-------|
G-|--------------|---------------|---------------|---------------|
D-|--------------|---------------|---------------|---------------|
A-|--------------|---------------|---------------|---------------|
E-|--------------|---------------|---------------|---------------|
e-|--------------|---------------|--------------|-----------------|
B-|--15-13-11-13-|--13-11-10-11--|--11-10-8-10--|-----------------|
G-|--------------|---------------|--------------|-----------------|
D-|--------------|---------------|--------------|-----------------|
A-|--------------|---------------|--------------|-12--15-12-15-12-|
E-|--------------|---------------|--------------|-----------------|
e-|-------------10-11|-10-------|-15--13--15--13-|-15--13---------|
B-|-------11-13------|----------|---15--13--15---|---15--13-15-11-|
G-|-10-12------------|----------|----------------|----------------|
D-|------------------|----------|----------------|----------------|
A-|------------------|----------|----------------|----------------|
E-|------------------|----------|----------------|----------------|
e-|--------------|--15--13-------|--------------|------------------|
B-|-13--11-------|----15--15--15-|-13-----------|------------------|
G-|---12---------|----------15---|--------------|-----9-12-----9-12|
D-|--------------|---------------|--------------|10-12----10-12----|
A-|--------------|---------------|--------------|------------------|
E-|--------------|---------------|--------------|------------------|
e-|------------------|---------------------|--------------13-11-11--|
B-|------------------|11--11-13-15-11-13-15|16-15-16-15-15--------15|
G-|-----9-12-----9-12|--12-----------------|------------------------|
D-|10-12----10-12----|---------------------|------------------------|
A-|------------------|---------------------|------------------------|
E-|------------------|---------------------|------------------------|
e-|-13--------|-15---------|-22--20-19-20-22-22-22-|22--19----------|
B-|-----------|------------|-----------------------|------20-18-----|
G-|-----------|------------|-----------------------|-----------19-17|
D-|-----------|------------|-----------------------|----------------|
A-|-----------|------------|-----------------------|----------------|
E-|-----------|------------|-----------------------|----------------|
e-|----19-------|15-13------------------------|-------------------|
B-|-------------|-----15-13-11-13-15-13-11----|-------------------|
G-|-15----------|-------------------------12--|--9----9-----------|
D-|-------------|---------------------------15|----12---12--------|
A-|-------------|-----------------------------|-------------------|
E-|-------------|-----------------------------|-------------------|
e-|-----------------|-----------|--------------------------------|
B-|-----------11----|----11-----|--------------------------------|
G-|---------12------|-12--------|--------------------------------|
D-|-10-12-15-----15-|-----------|--------------------------------|
A-|-----------------|-----------|--------------------------------|
E-|-----------------|-----------|--------------------------------|
e-|-------------|---------------|--------------|---------------|
B-|-------------|---------------|--------------|---------------|
G-|-------------|---------------|--------------|---------------|
D-|-------9-10--|-10-9-12-9-----|--------------|---------------|
A-|-10-12-------|-----------10--|-8-10--10-----|-8-10-10-------|
E-|-------------|---------------|----------10--|---------------|
e-|---13------13------13------13|-----13------13---|----------------|
B-|-13---16-15---16-15---16-15--|16-15---16-15---16|-15-13-15-13-11-|
G-|-----------------------------|------------------|----------------|
D-|-----------------------------|------------------|----------------|
A-|-----------------------------|------------------|----------------|
E-|-----------------------------|------------------|----------------|
e-|--------------------------|-------------------------------------|
B-|-11-11-11-11--11-11-11--8-|-------------------------------------|
G-|--------------------------|-------------------------------------|
D-|--------------------------|-------------------------------------|
A-|--------------------------|-------------------------------------|
E-|--------------------------|-------------------------------------|
e-|-19----19----19----19-----|--|--|--|---------------------------|
B-|----20----20----20----20--|--|--|--|------------------------11-|
G-|--------------------------|--|--|--|---------------------------|
D-|--------------------------|--|--|--|-15-12--12-12--12----------|
A-|--------------------------|--|--|--|------------------10-10----|
E-|--------------------------|--|--|--|---------------------------|
e-|---------------------------------------------------------------|
B-|-8-------------------------------------------------------------|
G-|---------------------------------------------------------------|
D-|---------------------------------------------------------------|
A-|---------------------------------------------------------------|
E-|---------------------------------------------------------------|
e-|-15---------|-15-13-11--13--15---15-|-13-15-13-11-13-15--15----|
B-|------------|-----------------------|--------------------------|
G-|------------|-----------------------|--------------------------|
D-|------------|-----------------------|--------------------------|
A-|------------|-----------------------|--------------------------|
E-|------------|-----------------------|--------------------------|
e-|-15--17--17--|-----15--13-15-|-17-----19-----|---------------|
B-|-------------|---------------|---------------|20-------------|
G-|-------------|---------------|---------------|---------------|
D-|-------------|---------------|---------------|---------------|
A-|-------------|---------------|---------------|---------------|
E-|-------------|---------------|---------------|---------------|
e-|----------13-|--15-13----|--------------|---------------|
B-|--15--15-----|--------11-|-15-----------|---------------|
G-|-------------|-----------|--------------|---------------|
D-|-------------|-----------|-----15-------|---------------|
A-|-------------|-----------|--------------|---------------|
E-|-------------|-----------|--------------|---------------|