Pixies - Sad Punk Chords

 
         
         
         
         
         
X
X
1
3
2
2 fr
         
         
         
         
         
X
4
3
1
2
1
5 fr
         
         
         
         
         
X
1
2
3
4
1
5 fr
         
         
         
         
         
X
1
4
4
4
X
7 fr
         
         
         
         
         
4
3
1
1
1
X
7 fr
         
         
         
         
         
3
2
1
1
1
4

10 fr
         
         
         
         
         
1
3
4
2
1
1
12 fr
         
         
         
         
         
X
X
1
3
4
3
5 fr
         
         
         
         
         
X
X
         
         
         
         
         
X
1
2
3
5 fr
         
         
         
         
         
1
3
4
2
1
1
2 fr
         
         
         
         
         
X
1
1
1
4
         
         
         
         
         
X
X
1
2
2 fr
         
         
         
         
         
3
2
1
1
1
4
7 fr
         
         
         
         
         
X
X
1
3
4
3

9 fr
         
         
         
         
         
X
4
3
1
2
1
12 fr
         
         
         
         
         
X
1
3
3
3
1
7 fr
         
         
         
         
         
1
3
4
2
1
1
         
         
         
         
         
X
2
1
X
3
         
         
         
         
         
X
1
4
4
4
X
         
         
         
         
         
X
1
3
3
3
1
4 fr
         
         
         
         
         
4
3
1
1
1
X
4 fr
         
         
         
         
         
3
2
1
1
1
4

9 fr
         
         
         
         
         
X
X
1
3
4
3
11 fr
         
         
         
         
         
X
4
3
1
2
1
         
         
         
         
         
3
2
4
3 fr
         
         
         
         
         
1
3
4
2
1
1
         
         
         
         
         
2
1
3
4
3 fr
         
         
         
         
         
X
X
3
2
1
1
5 fr
         
         
         
         
         
X
X
1
3
4
3
7 fr
         
         
         
         
         
X
4
3
1
2
1

10 fr
         
         
         
         
         
X
1
2
3
4
X
10 fr
         
         
         
         
         
X
1
3
3
3
1
12 fr
         
         
         
         
         
3
2
1
1
1
4
No chord
Standard guitar tuning:
E
A
D
G
B
E
No capo

Intro

Guitar 1
e|-----------------------------------------------------------------|
B|-----------------------------------------------------------------|
G|---------5~------6~----------------------6~------7~--------------|
D|-4~------5~------6~------6~------4~------6~------7~------7~------| A|-4~------3~------4~------6~------4~------4~------5~------7~------| E|-2~----------------------4~------2~----------------------5~------|

Verse

Guitar 1
e|-----------------------------------------------------------------|
B|-----------------------------------------------------------------|
G|---------2-2-2-2---------2-2-2-2---------2-2-2-2-----------------|
D|-4-4-4-4-2-2-2-2-4-4-4-4-2-2-2-2-4-4-4-4-2-2-2-2-3-3-3-3-3-3-3-3-|

A|-4-4-4-4-0-0-0-0-4-4-4-4-0-0-0-0-4-4-4-4-0-0-0-0-3-3-3-3-3-3-3-3-|

E|-2-2-2-2---------2-2-2-2---------2-2-2-2---------1-1-1-1-1-1-1-1-|
Guitar 2
e|-------------19-19-19-19-------------19-19-19-19-|
B|-17-17-17-17-20-20-20-20-17-17-17-17-20-20-20-20-|

G|-16-16-16-16-16-16-16-16-16-16-16-16-16-16-16-16-|

D|-------------------------------------------------| A|-------------------------------------------------| E|-------------------------------------------------|

Chorus

Guitar 1 & 2
e|-----------------------------------------------------------------|
B|-----------------------------------------------------------------|
G|---------5-5-5-5-6-6-6-6-----------------6-6-6-6-7-7-7-7---------|
D|-4-4-4-4-5-5-5-5-6-6-6-6-6-6-6-6-4-4-4-4-6-6-6-6-7-7-7-7-7-7-7-7-|

A|-4-4-4-4-3-3-3-3-4-4-4-4-6-6-6-6-4-4-4-4-4-4-4-4-5-5-5-5-7-7-7-7-|

E|-2-2-2-2-----------------4-4-4-4-2-2-2-2-----------------5-5-5-5-|
Repeat Verse

Solo

   p        p   p  pppppppppppppppppppppp  p p p   p   p
e|-1///////////////////////////\\\\\\\\\\\\\\\\\\\\\\\\\\\\\\\\\\1|
B|-3///////////////////////////\\\\\\\\\\\\\\\\\\\\\\\\\\\\\\\\\\3|
G|-2///////////////////////////\\\\\\\\\\\\\\\\\\\\\\\\\\\\\\\\\\2|
D|----------------------------------------------------------------|
A|----------------------------------------------------------------|
E|----------------------------------------------------------------|
Guitar 1
e|-----------------------------------------------------------------|
B|-----------------------------------------------------------------|
G|---------5~------6~----------------------6~------7~--------------|
D|-4~------5~------6~------6~------4~------6~------7~------7~------| A|-4~------3~------4~------6~------4~------4~------5~------7~------| E|-2~----------------------4~------2~----------------------5~------| Repeat Chorus Repeat Verse

Outro

Guitar 1 e|-0~------------2~--0~------------2~--0~------------2~----2~------------------| B|-2~------------3~--2~------------3~--2~------------3~----3~------------------| G|-2~------------2~--2~------------4~--2~------------2~----4~------------------|
D|-2~------------0~--2~------------4~--2~------------0~----4~------------------|
A|-0~----------------0~------------2~--0~------------------2~------------------|
E|-----------------------------------------------------------------------------|
Guitar 2
e|------------------------------------------------------------5~-----------|
B|---------------------------------------------------------------6~--------|
G|------6--4-----7--------6--4--------------6--4-----7--6--4---------7~----|
D|-7-7--------7------7-7--------7--4---7-7--------7------------------------|
A|-------------------------------------------------------------------------|
E|-------------------------------------------------------------------------|
Guitar 1
e|-----------------------------------------------------------------|
B|-----------------------------------------------------------------|
G|---------5~------6~----------------------6~------7~--------------|
D|-4~------5~------6~------6~------4~------6~------7~------7~------|x2 A|-4~------3~------4~------6~------4~------4~------5~------7~------| E|-2~----------------------4~------2~----------------------5~------|
e|-----------------------------------------------------------------|
B|-----------------------------------------------------------------|
G|---------2~--------------2~--------------2~--------------2~------|
D|-4~------2~------4~------2~------4~------2~------4~------2~----3~| A|-4~------0~------4~------0~------4~------0~------4~------0~----3~| E|-2~--------------2~--------------2~--------------2~------------1~| | / slide up | \ slide down | p pick chord | ~ vibrato