Powderfinger - Jc Chords

Main Riff
 
No chord
Standard guitar tuning:
E
A
D
G
B
E
No capo
INTRO & VERSE:
E-|---------4--------|-
B-|------5--4h5-4--2-|-
G-|---------4---4--2-|-
D-|-4/6--6--6------2-|-
A-|-2/4-----4------0-|-
E-|------------------|-
1ST CHORUS:
E-|------------------------|-
B-|--------------2-2---2-2-|-
G-|-4-4---4-4----3-3---3-3-|-
D-|-4-4---4-4----4-4---4-4-|-
A-|-2-2---2-2----4-4---4-4-|-
E-|--------------2-2---2-2-|-
2ND CHORUS
E-|------------------------|---------------------------|-
B-|--------------2-2---2-2-|-6-6-6-6--4-4-4-4--5-5-5-5-|-
G-|-4-4---4-4----3-3---3-3-|-6-6-6-6--5-5-5-5--6-6-6-6-|-
D-|-4-4---4-4----4-4---4-4-|-6-6-6-6--6-6-6-6--7-7-7-7-|-
A-|-2-2---2-2----4-4---4-4-|-4-4-4-4--6-6-6-6--7-7-7-7-|-
E-|--------------2-2---2-2-|----------4-4-4-4--5-5-5-5-|-

Bridge

E-|-------------------|-
B-|-5---8-9---5-5-5-5-|-
G-|-6---8-9---6-6-6-6-|-
D-|-6---8-9---7-7-7-7-|-
A-|-4---6-7---7-7-7-7-|-
E-|-----------5-5-5-5-|-

Break

E-|-------------|-
B-|-------------|-
G-|-------------|-
D-|-6-7-4-6-2-4-|-(then back into verse)
A-|-6-7-4-6-2-4-|-
E-|-4-5-2-4-0-2-|-

Outro

E-|-------------4-|-
B-|-------------5-|-
G-|-------------6-|-
D-|-6-7-4-6-2-4-6-|-
A-|-6-7-4-6-2-4-4-|-
E-|-4-5-2-4-0-2-4-|-