Powderfinger - Oipic Chords

 
         
         
         
         
         
X
X
1
3
2
2 fr
         
         
         
         
         
X
4
3
1
2
1
5 fr
         
         
         
         
         
X
1
2
3
4
1
5 fr
         
         
         
         
         
X
1
4
4
4
X
7 fr
         
         
         
         
         
4
3
1
1
1
X
7 fr
         
         
         
         
         
3
2
1
1
1
4

10 fr
         
         
         
         
         
1
3
4
2
1
1
12 fr
         
         
         
         
         
X
X
1
3
4
3
5 fr
         
         
         
         
         
X
X
No chord
    
Standard guitar tuning:
E
A
D
G
B
E
No capo

Intro

E-|---------------|-
A-|---------------|-
G-|-7---7---2---2-|-
D-|-0-0-----0-0---|-(x 2)
A-|---------------|-
D-|---------------|-
1ST VERSE:
     Fa
E-|------------------------------|-
A-|-------------------3--------5-|-
G-|-7---7--7\2-2-0----0--------0-|-
D-|-0-0--------0-0--3---3--3/5---|-(x 10) Note: after six bars start
A-|------------------------------|-             playing a few extra
D-|------------------------------|-             notes here & there
    And
E-|-------------|-
A-|-------------|-
G-|-------------|-
D-|-7-7-7-7-7-7-|-
A-|-7-7-7-7-7-7-|-
D-|-7-7-7-7-7-7-|-
2ND VERSE:
E-|---------------------------------|-
A-|----7-7-7-7\5-5------------------|-
G-|----7-7-7-7\5-5---5--5-5-5-5/7-7-|-
D-|-0--0-0-0-0---0---3--3-3-3-3/5-5-|-(x 8)
A-|-0--0-0-0-0---0---3--3-3-3-3/5-5-|-
D-|-0--0-0-0-0---0---3--3-3-3-3/5-5-|-
E-|------------------------------|-
A-|------------------------------|-
G-|-7--7----2--2----3--3----5--5-|-
D-|-7--7----2--2-0--3--3----5--5-|-(x4)
A-|-5--5----0--0--3-1--1----3--3-|-
D-|-0--0-------------------------|-
    And
E-|-----------------|-
A-|-----------------|-
G-|-----------------|-
D-|-7-7-7-7-7-7-7-7-|-(x2)
A-|-7-7-7-7-7-7-7-7-|-
D-|-7-7-7-7-7-7-7-7-|-

Interlude

D THEN THIS STRINGED PART WRITTEN FOR GUITAR:
E-|-----------|-
A-|-----------|-
G-|---7--7-7--|- (This Bar keeps repeating in the background
D-|-0-7--7-7--|-  right through the interlude until the
D-|-0-0--0-0--|-
E-|------------|-
A-|------------|-
G-|---7--7-7/9-|-
D-|-0-7--7-7---|-
A-|-0-5--5-5/7-|-
D-|-0----------|-
E-|-----------------------------------|-
A-|-----------------------------------|-
G-|-10-10--9-9--7-7--7-5-2-5/7---5-2--|-
D-|----------------------2-------5-2--|-(x 2)
A-|-8--8---7-7--5-5--5-3-0-3/5-0-3-0--|-
D-|-0--0---0-0--0-0--0-0---0---0-0----|-
E-|---------------------------------|-
A-|---------------------------------|-
G-|-15-15--14-14----15-15--14-12-10-|-
D-|---------------------------------|-(x2)
A-|-13-13--12-12----13-13--12-10-8--|-
D-|-0--0---0--0-----0--0---0--0--0--|-
E-|--------------------------------|-
A-|--------------------------------|-
G-|-10-10--9-9--7-7--7-7---7-7--7--|-
D-|------------------7-7---7-7--7--|-
A-|-8--8---7-7--5-5--5-5-0-5-5--5--|-
D-|-0--0---0-0--0-0--0-0---0-0--0--|-
^ Very Short, Cutting Chord.
E-|-------------|-
A-|-------------|-
G-|---7-7-9-5-2-|-
D-|-0-7-7-9-5-2-|-(x2)
A-|-0-5-5-7-3-0-|-
D-|-0-0-0-0-0---|-
E-|----------------|-
A-|----------------|-
G-|---7-7-9-10-10--|-
D-|-0-7-7-9-10-10--|-(x2)
A-|-0-5-5-7-8--8---|-
D-|-0-0-0-0-0--0---|-
E-|-------------------|-
A-|-------------------|-
G-|-12-12-12-10-10-10-|-
D-|-12-12-12-10-10-10-|-(x2)
A-|-10-10-10-8--8--8--|-
D-|-0--0--0--0--0--0--|-
E-|-------------|-
A-|-------------|-
G-|---7-7-9-5-2-|-
D-|-0-7-7-9-5-2-|-(x2)
A-|-0-5-5-7-3-0-|-
D-|-0-0-0-0-0---|-
E-|----------------------------------------|-
A-|----------------------------------------|-
G-|----------------------------------------|-
D-|-9--7--5--4~~--3~~--2~~--3--3-3-3-3/5-5-|-(this bit's tricky, but
A-|-------------------------3--3-3-3-3/5-5-|- this should sound ok)
D-|-------------------------3--3-3-3-3/5-5-|-
3RD VERSE:
     Fa
E-|---------------------------------|-
A-|----7-7-7-7\5-5------------------|-
G-|----7-7-7-7\5-5---5--5-5-5-5/7-7-|-
D-|-0--0-0-0-0---0---3--3-3-3-3/5-5-|-(x 4)
A-|-0--0-0-0-0---0---3--3-3-3-3/5-5-|-
D-|-0--0-0-0-0---0---3--3-3-3-3/5-5-|-

Chorus

E-|------------------------------|-
A-|------------------------------|-
G-|-7--7----2--2----3--3----5--5-|-
D-|-7--7----2--2-0--3--3----5--5-|-(x6)
A-|-5--5----0--0--3-1--1----3--3-|-
D-|-0--0-------------------------|-
    And
E-|-------------|-
A-|-------------|-
G-|-------------|-
D-|-7-7-7-7-7-7-|-
A-|-7-7-7-7-7-7-|-
D-|-7-7-7-7-7-7-|-
And then finish on a D chord.