The Ramones - 53rd And 3rd Chords

 
         
         
         
         
         
1
1
X
X
X
2 fr
         
         
         
         
         
X
X
1
3
4
X
7 fr
         
         
         
         
         
X
1
3
4
X
X
         
         
         
         
         
X
X
X
7 fr
         
         
         
         
         
X
X
         
         
         
         
         
X
X
1
2
X
5 fr
         
         
         
         
         
X
1
3
4
X
X
10 fr
         
         
         
         
         
1
3
4
X
X
X
         
         
         
         
         
X
1
2
X
X
5 fr
         
         
         
         
         
1
3
4
X
X
X
7 fr
         
         
         
         
         
X
X
1
3
4
X
         
         
         
         
         
X
X
5 fr
         
         
         
         
         
X
X
5 fr
         
         
         
         
         
X
X
3 fr
         
         
         
         
         
1
3
4
X
X
X
5 fr
         
         
         
         
         
X
X
1
3
4
X
10 fr
         
         
         
         
         
X
1
3
4
X
X
         
         
         
         
         
X
3 fr
         
         
         
         
         
X
X
         
         
         
         
         
X
1
3
4
X
X
7 fr
         
         
         
         
         
1
3
4
X
X
X
9 fr
         
         
         
         
         
X
X
1
3
4
X
         
         
         
         
         
X
X
No chord
Standard guitar tuning:
E
A
D
G
B
E
No capo
e|-------------------------------------------------|
B|---------------3-3-3-----------------------------|
G|---------------2-2-2--2-2-2----------------------|
D|--2-2-2-2-2----0-0-0--2-2-2----------------------|
A|--2-2-2-2-2-----------0-0-0----------------------|
E|--0-0-0-0-0--------------------------------------|
:: Verse 1 :: E5If you think you can well, D5come on A5man! E5I was a Green Beret D5in VietA5nam E5No more of your D5fairy A5stories E5'Cause I got my D5other A5worries!
e|-------------------------------------------------|
B|---------------3-3-3-----------------------------|
G|---------------2-2-2--2-2-2----------------------|
D|--2-2-2-2-2----0-0-0--2-2-2----------------------|
A|--2-2-2-2-2-----------0-0-0----------------------|
E|--0-0-0-0-0--------------------------------------|
:: Chorus :: D553rd and A53rd, G5standing on the A5street D553rd and A53rd, I'm G5tryin to turn a A5trick D553rd and A53rd, you're the G5one they never A5pick D553rd and A53rd, don't it G5make you feel A5sick?
e|-------------------------------------------------|
B|-------------------------------------------------|
G|--7-7-7-7----------------------------------------|
D|--7-7-7-7-7--7-7-5-5-5-5-7--7-7------------------|
A|--5-5-5-5-7--7-7-5-5-5-5-7--7-7------------------|
E|----------5--5-5-3-3-3-3-5--5-5------------------|
:: Verse 2 :: (such as the first) E5If you think you can well, D5come on A5man!
e|-------------------------------------------------|
B|---------------3-3-3-----------------------------|
G|---------------2-2-2--2-2-2----------------------|
D|--2-2-2-2-2----0-0-0--2-2-2----------------------|
A|--2-2-2-2-2-----------0-0-0----------------------|
E|--0-0-0-0-0--------------------------------------|
:: Chorus :: D553rd and A53rd, G5standing on the A5street
e|-------------------------------------------------|
B|-------------------------------------------------|
G|--7-7-7-7----------------------------------------|
D|--7-7-7-7-7--7-7-5-5-5-5-7--7-7------------------|
A|--5-5-5-5-7--7-7-5-5-5-5-7--7-7------------------|
E|----------5--5-5-3-3-3-3-5--5-5------------------|
:: Bridge :: B5Then I took out my A5razor blade B5Then I did what A5God forbade
e|-------------------------------------------------|
B|-------------------------------------------------|
G|-------------------------------------------------|
D|--9-9-9-9-9-9-9-9-7-7-7-7-7-7-7-7----------------|
A|--9-9-9-9-9-9-9-9-7-7-7-7-7-7-7-7----------------|
E|--7-7-7-7-7-7-7-7-5-5-5-5-5-5-5-5----------------|
G5Now the cops are A5after me But G5I proved that I'm no A5sissy!
e|-------------------------------------------------|
B|-------------------------------------------------|
G|-------------------------------------------------|
D|--5-5-5-5-5-5-5-5-7-7-7-7-7-7-7-7----------------|
A|--5-5-5-5-5-5-5-5-7-7-7-7-7-7-7-7----------------|
E|--3-3-3-3-3-3-3-3-5-5-5-5-5-5-5-5----------------|
:: Chorus 2 :: (1 step up) E553rd and B53rd, A5standing on the B5street E553rd and B53rd, I'm A5tryin to turn a B5trick E553rd and B53rd, you're the A5one they never B5pick E553rd and B53rd, don't it A5make you feel B5sick?
e|-------------------------------------------------|
B|-------------------------------------------------|
G|--9-9-9-9----------------------------------------|
D|--9-9-9-9-9--9-9-7-7-7-7-9--9-9------------------|
A|--7-7-7-7-9--9-9-7-7-7-7-9--9-9------------------|
E|----------7--7-7-5-5-5-5-7--7-7------------------|
:: Outro ::
e|-------------------------------------------------|
B|---------------3-3-3-----------------------------|
G|---------------2-2-2--2-2-2----------------------|
D|--2-2-2-2-2----0-0-0--2-2-2----------------------|
A|--2-2-2-2-2-----------0-0-0----------------------|
E|--0-0-0-0-0--------------------------------------|
e|-------------------------------------------------|
B|---------------3-3-3-----------------------------|
G|---------------2-2-2--2--------------------------|
D|--2-2-2-2-2----0-0-0--2--------------------------|
A|--2-2-2-2-2-----------0--------------------------|
E|--0-0-0-0-0--------------------------------------|
One, two, three, four! E553rd and 3rd! D5 A5 E553rd and 3rd! D5 A5 E553rd and 3rd! D5 A5 E553rd and 3rd! D5 A5
e|-------------------------------------------------|
B|---------------3-3-3-----------------------------|
G|---------------2-2-2--2-2-2----------------------|
D|--2-2-2-2-2----0-0-0--2-2-2----------------------|
A|--2-2-2-2-2-----------0-0-0----------------------|
E|--0-0-0-0-0--------------------------------------|
Have fun! :) HEY, HO LET'S GO!