The Ramones - Dont Bust My Chops Chords

 
3 fr
         
         
         
         
         
1
3
4
X
X
X
5 fr
         
         
         
         
         
X
X
1
3
4
X
10 fr
         
         
         
         
         
X
1
3
4
X
X
         
         
         
         
         
X
3 fr
         
         
         
         
         
X
X

B5

variations
         
         
         
         
         
X
1
3
4
X
X
6 fr
         
         
         
         
         
1
3
4
X
X
X
8 fr
         
         
         
         
         
X
X
1
3
4
X
6 fr
         
         
         
         
         
X
X
3 fr
         
         
         
         
         
X
1
3
4
X
X
8 fr
         
         
         
         
         
1
3
4
X
X
X
10 fr
         
         
         
         
         
X
X
1
3
4
X
3 fr
         
         
         
         
         
X
X
         
         
         
         
         
X
X
1
2
X
5 fr
         
         
         
         
         
X
1
3
4
X
X
10 fr
         
         
         
         
         
1
3
4
X
X
X
No chord
Standard guitar tuning:
E
A
D
G
B
E
No capo

G5 B5 C5 D5 x3

C5 D5

I'm sG5ick and tiB5red of you're callC5ing me nameD5s I'm sick and tired of your childish games I'm sick and tired of your bullshit brats C5Cocaine stupor and anxieD5nty attacks Picked up the magazine, I see your face You're nothin' boy, a godamm waste With the lamest fashion on your back You're never happy, a hypocondriac G5Don't bust my chops, baby don't bust my chops C5 B5 (G52x)

C5/D5 D5 C5 x4

You're a styling queen and an alley cat Too many chocolates keep a fat man fat You're a pain in the ass, and you're on the loose All I can get from you is your bad additude Dirty mouth, it's all I can bear Get outta here bitch, 'cause you're nowhere Always wearing that cheap parfume I can always tell when you're in the room Don't bust...(2x)

C5/D5 D5 C5 x4

E|-3-------33-------33-------33---------------------------------------|
B|-3-------33-------33-------33------------3---5------5--------5-3----|
G|----5b(7)---5b(7)----5b(7)----5br(7)-3-5-3-0-5b(6)--5br(6)-3-5-3----|
D|--------------------------------------------------------------------|
A|--------------------------------------------------------------------|
e|--------------------------------------------------------------------|
E|------------------------------------8--------8--------8---------10-|
B|-------555555-5-3-0-3h5-3-0--8b(10)---8b(10)---8b(10)---10b(12)----|
G|---3/5-555555-5-3-0-3h5-3-0----------------------------------------|
D--5-----------------------------------------------------------------|
A|-------------------------------------------------------------------|
e|-------------------------------------------------------------------|
E|---------10----------10---------|
B|-10b(12)-----10b(12)------------|
G|--------------------------------|
D|--------------------------------|
A|--------------------------------|
e|--------------------------------|
Don't bust.. (4x)

C5 D5 D5 C5

G5