The Ramones - Teenage Labotomy Chords

 
No chord
Standard guitar tuning:
E
A
D
G
B
E
No capo
e|----------7-7-7-7-7-7-7-7--|
B|--7--9----7-7-7-7-7-7-7-7--|
G|--7--9----8-8-8-8-8-8-8-8--|
D|--7--9----9-9-9-9-9-9-9-9--|
A|--5--7----9-9-9-9-9-9-9-9--|
E|----------7-7-7-7-7-7-7-7--|
e|------------5--|
B|--9-9-9--7--5--|
G|--9-9-9--7--6--|
D|--9-9-9--7--7--|
A|--7-7-7--5--7--|
E|------------5--| x4
e|--5--3-------------------|
B|--5--3--7-7-7-7-7-7-7-7--|
G|--6--4--7-7-7-7-7-7-7-7--|
D|--7--5--7-7-7-7-7-7-7-7--|
A|--7--5--5-5-5-5-5-5-5-5--|
E|--5--3-------------------| x2
e|--5-5-5-5-5-5-5-5-5-5-5-5-5-5-5-5-----------------------------------|
B|--5-5-5-5-5-5-5-5-5-5-5-5-5-5-5-5--9-9-9-9-9-9-9-9-9-9-9-9-9-9-9-9--|
G|--6-6-6-6-6-6-6-6-6-6-6-6-6-6-6-6--9-9-9-9-9-9-9-9-9-9-9-9-9-9-9-9--|
D|--7-7-7-7-7-7-7-7-7-7-7-7-7-7-7-7--9-9-9-9-9-9-9-9-9-9-9-9-9-9-9-9--|
A|--7-7-7-7-7-7-7-7-7-7-7-7-7-7-7-7--7-7-7-7-7-7-7-7-7-7-7-7-7-7-7-7--|
E|--5-5-5-5-5-5-5-5-5-5-5-5-5-5-5-5-----------------------------------| x3
e|----------7-7-7-7-7-7-7-7--|
B|--7--9----7-7-7-7-7-7-7-7--|
G|--7--9----8-8-8-8-8-8-8-8--|
D|--7--9----9-9-9-9-9-9-9-9--|
A|--5--7----9-9-9-9-9-9-9-9--|
E|----------7-7-7-7-7-7-7-7--| x2
e|------------5--|
B|--9-9-9--7--5--|
G|--9-9-9--7--6--|
D|--9-9-9--7--7--|
A|--7-7-7--5--7--|
E|------------5--| x4
e|--5--3-------------------|
B|--5--3--7-7-7-7-7-7-7-7--|
G|--6--4--7-7-7-7-7-7-7-7--|
D|--7--5--7-7-7-7-7-7-7-7--|
A|--7--5--5-5-5-5-5-5-5-5--|
E|--5--3-------------------| x2
e|--5-5-5-5-5-5-5-5-5-5-5-5-5-5-5-5-----------------------------------|
B|--5-5-5-5-5-5-5-5-5-5-5-5-5-5-5-5--9-9-9-9-9-9-9-9-9-9-9-9-9-9-9-9--|
G|--6-6-6-6-6-6-6-6-6-6-6-6-6-6-6-6--9-9-9-9-9-9-9-9-9-9-9-9-9-9-9-9--|
D|--7-7-7-7-7-7-7-7-7-7-7-7-7-7-7-7--9-9-9-9-9-9-9-9-9-9-9-9-9-9-9-9--|
A|--7-7-7-7-7-7-7-7-7-7-7-7-7-7-7-7--7-7-7-7-7-7-7-7-7-7-7-7-7-7-7-7--|
E|--5-5-5-5-5-5-5-5-5-5-5-5-5-5-5-5-----------------------------------| x3
e|----------7-7-7-7-7-7-7-7--|
B|--7--9----7-7-7-7-7-7-7-7--|
G|--7--9----8-8-8-8-8-8-8-8--|
D|--7--9----9-9-9-9-9-9-9-9--|
A|--5--7----9-9-9-9-9-9-9-9--|
E|----------7-7-7-7-7-7-7-7--| x2
e|------------5--|
B|--9-9-9--7--5--|
G|--9-9-9--7--6--|
D|--9-9-9--7--7--|
A|--7-7-7--5--7--|
E|------------5--| x4
e|--5--3-------------------|
B|--5--3--7-7-7-7-7-7-7-7--|
G|--6--4--7-7-7-7-7-7-7-7--|
D|--7--5--7-7-7-7-7-7-7-7--|
A|--7--5--5-5-5-5-5-5-5-5--|
E|--5--3-------------------| x2
e|----------7-7-7-7-7-7-7-7--|
B|--7--9----7-7-7-7-7-7-7-7--|
G|--7--9----8-8-8-8-8-8-8-8--|
D|--7--9----9-9-9-9-9-9-9-9--|
A|--5--7----9-9-9-9-9-9-9-9--|
E|----------7-7-7-7-7-7-7-7--|
e|------------5--|
B|--9-9-9--7--5--|
G|--9-9-9--7--6--|
D|--9-9-9--7--7--|
A|--7-7-7--5--7--|
E|------------5--| x4
e|--5--3-------------------|
B|--5--3--7-7-7-7-7-7-7-7--|
G|--6--4--7-7-7-7-7-7-7-7--|
D|--7--5--7-7-7-7-7-7-7-7--|
A|--7--5--5-5-5-5-5-5-5-5--|
E|--5--3-------------------| x2
e|--5-5-5-5-5-5-5-5-5-5-5-5-5-5-5-5-----------------------------------|
B|--5-5-5-5-5-5-5-5-5-5-5-5-5-5-5-5--9-9-9-9-9-9-9-9-9-9-9-9-9-9-9-9--|
G|--6-6-6-6-6-6-6-6-6-6-6-6-6-6-6-6--9-9-9-9-9-9-9-9-9-9-9-9-9-9-9-9--|
D|--7-7-7-7-7-7-7-7-7-7-7-7-7-7-7-7--9-9-9-9-9-9-9-9-9-9-9-9-9-9-9-9--|
A|--7-7-7-7-7-7-7-7-7-7-7-7-7-7-7-7--7-7-7-7-7-7-7-7-7-7-7-7-7-7-7-7--|
E|--5-5-5-5-5-5-5-5-5-5-5-5-5-5-5-5-----------------------------------| x3
e|----------7-7-7-7-7-7-7-7--|
B|--7--9----7-7-7-7-7-7-7-7--|
G|--7--9----8-8-8-8-8-8-8-8--|
D|--7--9----9-9-9-9-9-9-9-9--|
A|--5--7----9-9-9-9-9-9-9-9--|
E|----------7-7-7-7-7-7-7-7--| x2
e|------------5--|
B|--9-9-9--7--5--|
G|--9-9-9--7--6--|
D|--9-9-9--7--7--|
A|--7-7-7--5--7--|
E|------------5--| x4
e|--5--3-------------------|
B|--5--3--7-7-7-7-7-7-7-7--|
G|--6--4--7-7-7-7-7-7-7-7--|
D|--7--5--7-7-7-7-7-7-7-7--|
A|--7--5--5-5-5-5-5-5-5-5--|
E|--5--3-------------------|
e|--5--3-----|
B|--5--3--7--|
G|--6--4--7--|
D|--7--5--7--|
A|--7--5--5--|
E|--5--3-----|