Rancid - And Out Come The Wolves Chords

 
7 fr
         
         
         
         
1
3
4
2
1
1
         
         
         
         
X
2
1
X
3
         
         
         
         
X
1
4
4
4
X
         
         
         
         
X
1
3
3
3
1
4 fr
         
         
         
         
4
3
1
1
1
X
4 fr
         
         
         
         
3
2
1
1
1
4

9 fr
         
         
         
         
X
X
1
3
4
3
11 fr
         
         
         
         
X
4
3
1
2
1
         
         
         
         
X
1
2
3
5 fr
         
         
         
         
1
3
4
2
1
1
2 fr
         
         
         
         
X
1
1
1
4
         
         
         
         
X
X
1
2
2 fr
         
         
         
         
3
2
1
1
1
4
7 fr
         
         
         
         
X
X
1
3
4
3

9 fr
         
         
         
         
X
4
3
1
2
1
12 fr
         
         
         
         
X
1
3
3
3
1
         
         
         
         
X
X
1
3
2
2 fr
         
         
         
         
X
4
3
1
2
1
5 fr
         
         
         
         
X
1
2
3
4
1
5 fr
         
         
         
         
X
1
4
4
4
X
7 fr
         
         
         
         
4
3
1
1
1
X
7 fr
         
         
         
         
3
2
1
1
1
4

10 fr
         
         
         
         
1
3
4
2
1
1
12 fr
         
         
         
         
X
X
1
3
4
3
5 fr
         
         
         
         
X
X
         
         
         
         
X
3
2
1
3 fr
         
         
         
         
X
1
2
3
4
1
8 fr
         
         
         
         
1
3
4
2
1
1
3 fr
         
         
         
         
X
1
X
3
4
1
5 fr
         
         
         
         
3
2
1
1
1
4
10 fr
         
         
         
         
X
X
1
3
4
3

12 fr
         
         
         
         
X
4
3
1
2
1
3 fr
         
         
         
         
X
         
         
         
         
3
2
4
3 fr
         
         
         
         
1
3
4
2
1
1
         
         
         
         
2
1
3
4
3 fr
         
         
         
         
X
X
3
2
1
1
5 fr
         
         
         
         
X
X
1
3
4
3
7 fr
         
         
         
         
X
4
3
1
2
1

10 fr
         
         
         
         
X
1
2
3
4
X
10 fr
         
         
         
         
X
1
3
3
3
1
12 fr
         
         
         
         
3
2
1
1
1
4
         
         
         
         
1
3
4
2
1
1
5 fr
         
         
         
         
X
4
3
1
2
1
3 fr
         
         
         
         
X
X
1
2
4
3
         
         
         
         
X
X
3
2
1
1
8 fr
         
         
         
         
X
1
3
3
3
1
10 fr
         
         
         
         
4
3
1
1
1
X

10 fr
         
         
         
         
3
2
1
1
1
4

B

variations
         
         
         
         
X
1
2
3
4
1
6 fr
         
         
         
         
1
3
4
2
1
1
         
         
         
         
X
1
4
4
4
X
         
         
         
         
X
1
X
3
4
1
3 fr
         
         
         
         
3
2
1
1
1
4
8 fr
         
         
         
         
X
X
1
3
4
3

10 fr
         
         
         
         
X
4
3
1
2
1
         
         
         
         
2
3
1
4 fr
         
         
         
         
X
4
3
1
2
1
7 fr
         
         
         
         
X
1
4
4
4
X
2 fr
         
         
         
         
X
X
1
2
4
3
4 fr
         
         
         
         
4
3
1
2
1
7 fr
         
         
         
         
X
1
3
3
3
1

9 fr
         
         
         
         
4
3
1
1
1
X
9 fr
         
         
         
         
3
2
1
1
1
4
12 fr
         
         
         
         
1
3
4
2
1
1
4 fr
         
         
         
         
X
         
         
         
         
X
1
3
4
2
1
7 fr
         
         
         
         
1
3
4
1
1
1
         
         
         
         
X
1
3
4
2
X
7 fr
         
         
         
         
X
X
3
1
1
1
9 fr
         
         
         
         
X
X
1
3
4
2
11 fr
         
         
         
         
X
4
3
1
2
X
         
         
         
         
2
3
3 fr
         
         
         
         
X
X
2
4
1
7 fr
         
         
         
         
X
1
3
4
2
1
2 fr
         
         
         
         
X
X
1
3
4
2
3 fr
         
         
         
         
X
3
2
4
1
4 fr
         
         
         
         
X
4
3
1
2
X

12 fr
         
         
         
         
1
3
4
1
1
1

C

variations
4 fr
         
         
         
         
X
1
2
3
4
1
         
         
         
         
X
4
3
1
2
1
4 fr
         
         
         
         
X
1
4
4
4
X
6 fr
         
         
         
         
4
3
1
1
1
X
6 fr
         
         
         
         
3
2
1
1
1
4
9 fr
         
         
         
         
1
3
4
2
1
1

11 fr
         
         
         
         
X
X
1
3
4
3

F

variations
         
         
         
         
1
3
4
2
1
1
         
         
         
         
X
X
3
2
1
1
6 fr
         
         
         
         
X
4
3
1
2
1
4 fr
         
         
         
         
X
X
1
2
4
3
9 fr
         
         
         
         
X
1
3
3
3
1
11 fr
         
         
         
         
4
3
1
1
1
X

11 fr
         
         
         
         
3
2
1
1
1
4

A

variations
4 fr
         
         
         
         
1
3
4
2
1
1
4 fr
         
         
         
         
X
X
3
2
1
1
6 fr
         
         
         
         
X
X
1
2
4
3
         
         
         
         
3
2
1
1
1
4
8 fr
         
         
         
         
X
4
3
1
2
1
11 fr
         
         
         
         
X
1
2
3
4
X

11 fr
         
         
         
         
X
1
3
3
3
1
         
         
         
         
X
2
3
1
5 fr
         
         
         
         
1
3
4
1
1
1
5 fr
         
         
         
         
X
X
1
1
1
8 fr
         
         
         
         
X
3
2
4
1
2 fr
         
         
         
         
X
1
4
4
4
7 fr
         
         
         
         
X
1
3
4
2

9 fr
         
         
         
         
X
4
3
1
2
X
12 fr
         
         
         
         
X
1
3
4
2
1
5 fr
         
         
         
         
X

E

variations
3 fr
         
         
         
         
X
4
3
1
2
1
6 fr
         
         
         
         
X
1
2
3
4
1
         
         
         
         
X
X
1
2
4
3
3 fr
         
         
         
         
X
4
3
1
2
X
8 fr
         
         
         
         
4
3
1
1
1
X
8 fr
         
         
         
         
3
2
1
1
1
4

11 fr
         
         
         
         
1
3
4
2
1
1

Fm

variations
         
         
         
         
1
3
4
1
1
1
4 fr
         
         
         
         
X
X
1
3
4
2
         
         
         
         
X
X
3
1
1
1
9 fr
         
         
         
         
X
1
3
4
2
1
6 fr
         
         
         
         
X
4
3
1
2
X
No chord
Standard guitar tuning:
E
A
D
G
B
E
No capo

Intro

BA A

Verse 1

DMaxwell can tell he's in hell CJust wants you to Gvisit him there DSame old game that he's playing CHis rules are Gnever fair PRE CHORUS- DNobody wanna look back everybody wanna CGet high tonight before they run outta time DWhere is the felon, yeah the chargible felon CName of the crook who commited the crime

Chorus

F999 if you Areally want the Dtruth Dial F999 if you Acan't see it Dthrough He Fain't Jack the Ripper, he's your Aordinary Dcrook DCalling AMaxwell FMurder for Ayou

Verse 2

DMaxwell got a hand in this plan CHe knows that youG're in on this plan DChop the rock before you bought it CSickness Maxwell Gknows you caught it PRE CHORUS- DNobody wanna look back everybody wanna CGet high tonight before they run outta time DWhere is the felon, chargible felon CName of the crook who commited the crime

Chorus

F999 if you Areally want the Dtruth Dial F999 if you Acan't see it Dthrough He Fain't Jack the Ripper, he's your Aordinary Dcrook DCalling AMaxwell FMurder for Ayou D(BASS SOLO)=AWSOME)

Chorus

Dial F999 if you Areally want the Dtruth Dial F999 if you Acan't see it Dthrough He Fain't Jack the Ripper, he's your Aordinary Dcrook DCalling AMaxwell FMurder for Ayou End on D 11th HOUR-

Intro

e|---------------------1--1---------------------------------------------|
B|--------5--5---------1--1---------------------------------------------|
G|--------5--5---------2--2---------------------------------------------|
D|-5--5---5--5--5--5---3--3---------------------------------------------|
A|-5--5---3--3--5--5---3--3---------------------------------------------|
E|-3--3---------3--3---1--1---------------------------------------------|

Riff 1

e-----------------------------
B-----------------------------
G-5-4-5-4-5-4-5-4-5-4-5-4-5-7-
D-----------------------------
A-----------------------------
E-----------------------------

Verse 1

CHey Flittle sCister G do you Cknow what Ftime it Cwas G When you Cfinally Fseen all your Cbroken Gdreams Come Fcrashing down your Gdoor CThey deFmand an Canswer G and Cthey deFmand it Cquick G When the Cquestions Ffade and all the Cwasted Gdays Come Fcrawling back for Gmore and I said FDo you know where the Cpower lies F And who pCulls the strings FDo you know where the Cpower lies It Astarts and Gends with Cyou

C F CC B FF

The Cface of FisoClation G well Cthat's what you FrecogCnizeG And what you Ccan't get Fstraight is a Clonely Gplace And Fall you do Gdespise CBoredom Fis for Csale now G and ChelplessFness you CfeelG Well it's a Cwounded Fdove and the Chawks are Gabove For Fsplattering reel to Greel and I said FDo you know where the Cpower lies F And who Cpulls the strings FDo you know where the Cpower lies It Astarts and Gends with Cyou

C F C C B FF

IB Awas almost over and my world was almost gone And in a sudden rush I could almost touch the FThings that I'd done Gwrong My Cjungle's Fmade of Cconcrete G and through the Csilence FI can Cfeel G That my aCim is tFrue and I will wCalk on tGhrough These Fmountains made of Gsteel and I said FDo you know where the Cpower lies FAnd who Cpulls the strings FDo you know where the Cpower lies It Astarts and Gends with Cyou CENDF- C C B F F ROOTS RADICALS-

Verse

1 CTook the 60 bus Fout of downtown Campbell GBen Zanado he was Fon there he was Cwaiting for me CAll the punk rockers Fand the moon stompers GAre out on the Fcorners where they're Csparing for change

Verse2

CI started thinking you Fknow I started drinking GI don't really Fremember too much Cof that day CSomething struck me funny when Fwe ran outta money GWhere do you Fgo now when you're Conly fifteen? PRE CHORUS- BWhen the music execution and the Ftalk of revolution G bleeds in me and it goes

Chorus

CGive 'em the boot the Froots the Gradicals CGive 'em the boot Fy'know I'm Ga radical CGive 'em the boot Fthe roots Gthe reggae on my Cstereo G

Verse 3

CThe radio was playing Desmond FDekker was singing On the G43 Fbus as we Cclimb up the hill CNothing incoming but the Freggae drumming And we Gall come Ffrom Cunloving homes

Verse 4

CWhy even bother and Fpick up the bottle Mr. GBus Driver Fplease Clet these people on CRude girl Carol was a Fmini-skirt girl My Gblurry Fvision saw Cnothing wrong PRE CHORUS- BWhen the music execution and the Ftalk of revolution G bleeds in me and it goes

Chorus

CGive 'em the boot the Froots the Gradicals CGive 'em the boot Fy'know I'm Ga radical CGive 'em the boot Fthe roots Gthe reggae on my Cstereo GOn my stereo!

Solo

FYeah yeah yeah yeah yeah yeah Cyeah
e|-7/8-8-8-7/8-8-8----11-----------------|
B|-7/8-8-8-7/8-8-8----11-----------------|
G|-----------------10-10-----------------|
D|---------------------------------------|
A|---------------------------------------|
E|---------------------------------------|
e|-----------------B---------------------|
B|-11-8-10-11-8-10-11-10-8---------------|
G|-------------------------10------------|
D|---------------------------------------|
A|---------------------------------------|
E|---------------------------------------
FYeah yeah yeah yeah yeah yeah Cyeah FYeah yeah yeah yeah yeah yeah Cyeah FYeah yeah yeah yeah yeah yeah Cyeah
E|-1/3-3-1/3-3-3-3-11-|

B|-1/3-3-1/3-3-3-3-10-|

G|--------------------| D|--------------------| A|--------------------| E|--------------------|
FYeah yeah yeah yeah yeah yeah Gyeeeaaah

Verse 5

CTook the 60 bus Fout of downtown Campbell GBen Zanado he was Fon there he was Cwaiting for me CAll the punk rockers Fand the moon stompers GAre out on the Fcorners where they're Csparing for change

Verse 6

CThe radio was playing Desmond FDekker was singing On the G43 Fbus as we Cclimb up the hill CRude girl Carol was a Fmini-skirt girl My Gblurry Fvision saw Cnothing wrong PRE CHORUS- BWhen the music execution and the Ftalk of revolution Gbleeds in me and it goes

Chorus

CGive 'em the boot the Froots the Gradicals CGive 'em the boot Fy'know I'm Ga radical CGive 'em the boot Fthe roots Gthe reggae on my Cstereo G F C

Chorus

B E BA B E E

CGive 'em the boot the Froots the Gradicals CGive 'em the boot Fy'know I'm Ga radical CGive 'em the boot Fthe roots Gthe reggae on my Cstereo G F C END ON C- TIME BOMB-(SKA)

Intro

   Bm      E        Bm     E
e|--------------------------------|
B|--------------3----------55-5-3-|
G|--4-4-4-----------4-4-4---------|
D|---------22-2-------------------|

Verse 1

If you Bmwanna make a move then you Ebetter come in It's just the Bmability to reason that Ewears so thin BmLiving and dying and the Estories that are true BmSecret to a good life's Eknowing when you're through

Chorus

ABlack coat, white Dshoes, black hat, CadiEllac, yeah, the Dboy's a time bomb ABlack coat, white Dshoes, black hat, CadiEllac, yeah, the Dboy's a time bomb

Verse

2 Well, he's Bmback in the hole where they Egot him living like a rat BmBut he's smarter than Ethat, nine lives like a cat BmTen years old? they take him Eto the youth authority home BmFirst thing you learn: you got to Emake it in this world alone

Chorus

ABlack coat, white Dshoes, black hat, CadiEllac, yeah, the Dboy's a time bomb ABlack coat, white Dshoes, black hat, CadiEllac, yeah, the Dboy's a time bomb

Verse

3 BmNow he's gotten out, he's gotten Efree, he's gotta go, got a car BmHe's 21 years old, he's Erunnin' numbers from the bar BmHis pager's beepin',E he's gettin' deep in WhatBmever he can move on in, you Eknow that kid's a creepin' in

Chorus

ABlack coat, white Dshoes, black hat, CadiEllac, yeah, the Dboy's a time bomb ABlack coat, white Dshoes, black hat, CadiEllac, yeah, the Dboy's a time bomb E The boy's a time bomb

Solo

EM C G

    Bm   E        Bm   E        Bm   E        Bm          E
e--------------------------------------------------------------------
B-----------3~~-2---------3~~-2---------3~~-2-3-3-2-3-3-2-3-3-2-3-3--
G---4--2-4--------4--2-4--------4--2-4-------------------------------
D--------------------------------------------------------------------
A--------------------------------------------------------------------
E--------------------------------------------------------------------

B BE GA

    A        D       E     D         A           D               E  D
e---5----5---4-------------------------------------------------0-0---
B------7---7----7--5---2-2-3-3-3-2-0-----2---3-2-----3-2-3-2-3-------
G------------------------------------2-----2-----2-------------------
D--------------------------------------------------------------------
A--------------------------------------------------------------------
E--------------------------------------------------------------------

Verse

4 BmTears come from the razor that's been Etattooed below his eye BmHis mother cries, she knows that Ehe is strong enough to die BmHe's rollin' in the CadiEllac, it's midnight, sunroof is down BmThree shots ring out, the hero's Edead, the new king is crowned

Chorus

ABlack coat, white Dshoes, black hat, CadiEllac, yeah, the Dboy's a time bomb ABlack coat, white Dshoes, black hat, CadiEllac, yeah, the Dboy's a time bomb E The boy's a time bomb

Chorus

ABlack coat, white Dshoes, black hat, CadiEllac, yeah, the Dboy's a time bomb ABlack coat, white Dshoes, black hat, CadiEllac, yeah, the Dboy's a time bomb E The boy's a time bomb E ...Ooh...time bomb END ON A- OLYMPIA WA.

Intro

C D G C C G C D

e-------3-------------------------------------------
B---1h3-3-1-1-3333-0000-1-(x3)-5-5-3-5-5-3-5-5-5-3--
G---------------------------------------------------
D---------------------------------------------------
A---------------------------------------------------
E---------------------------------------------------

Intro

Verse

palm-muted): GHangin' out with Lars down on C6th street He knew that I was in Gtrouble I was feeling much like the Ddevil There was something burning deep inside of Gme Ran into three Puerto CRicans These girls took us to the Gfunhouse Where we Dplayed a lonely Gpinball machine D

Chorus

CHangin' on the Dcorner of G52nd and CBroadway CCars passin Dby but Gnone of them seem to go Cmy way CNew York DCity, well I Gwish I was on the Chighway CBaa - Gack to ODlympia...

Verse 2

GI'm having a hard time undersCtanding It gets all too deGmanding She's all gone and I'm stDranded Something burning deep inside of Gme

Verse 3

All I know it's 4 o'Cclock and She ain't never showed Gup and I Dwatched a thousand people Ggo home from work D Yeah!

Chorus

CHangin' on the Dcorner of G52nd and CBroadway CCars passin Dby but Gnone of them seem to go Cmy way CNew York DCity, well I Gwish I was on the Chighway CBaa - Gack to ODlympia...

Solo

e|--15-15--15--15-15--15-18-18-18-18--15--15--------|
B|--15-15--15--15-15--15-17-17-17-17--15--15--------|
G|--------------------------------------------------|
D|--------------------------------------------------|
A|--------------------------------------------------|
E|--------------------------------------------------|
e|--------------------------------------------------|
B|-----------B--------------------------------------|
G|-17-15-17-17--17-15-----B---15-17-----------------|
D|----------------------17-17-----------------------|
A|--------------------------------------------------|
E|--------------------------------------------------|
e|--------------------------------------------------|
B|--------------------------------------------------|
G|--17^---17^--17-15------------------15-17-15-17^--|
D|-------------------17--17-17-17-17----------------|
A|--------------------------------------------------|
E|--------------------------------------------------|
e|----------------------------------------------------------------|
B|----------------------------------------------------------------|
G|--17^--17^-17-15-/19-19-19-19-19-19-19-19-19-19-19-19-19-19-17\-|
D|----------------------------------------------------------------|
A|----------------------------------------------------------------|
E|----------------------------------------------------------------|

Verse 4

GHow many times will it Ctake me Before I go cGrazy Before I lose Deverything Something burning deep inside of Gme

Verse 5

Ran into three Puerto CRicans Those girls took us to the Gfun house DI don't want to be aGlone again D

Chorus

CHangin' on the Dcorner of G52nd and CBroadway CCars passin Dby but Gnone of them seem to go Cmy way CNew York DCity, well I Gwish I was on the Chighway CBaa - Gack to ODlympia...

Intro

C D G C C G C D

e-------3--------------------------------------------
B---1h3-3-1-1-3333-0000-1-(x3)-5-5-3-5-5-3-5-5-5-3-8-
G----------------------------------------------------
D----------------------------------------------------X2
A----------------------------------------------------
E----------------------------------------------------
END- LOCK,STOP AND GONE-

Intro

C F C X2

Chorus

CThe ending isn't Fhere there's something Cwrong CBut it's coming real Fsoon I lock, step, I'm Cgone CThe feeling isn't Ffear there's something Cwrong CIt's just telling you to Fmove I lock, step, I'm Cgone

Verse 1

CThere's a fire on the Ecorner and it's Anever gonna Cstop CKiller in the Eneighborhood Anever got Ccaught CI lock my Edoor step Aout and I'm Cgone CWaiting for the Ebuses but the Abuses won't Ccome

Verse 2

CAll the docks are Fquiet there's something Cwrong CAnd there's no ships coming Fin I lock, step, I'm Cgone CWhere there once was a Friot there's something Cwrong CThere's a whole lotta Fnothing I lock step I'm Cgone

Verse 3

CStop sign Ebroken and the Ameter's going Cdown CWild dogs are Erunning themAselves into the Cground CEverything was Eclear for that Amoment in Ctime CIf I don't come Eback Athrow me a Cline

Chorus

CThe ending isn't Fhere F C CBut it's coming real Fsoon F C CThe feeling isn't Ffear F C CIt's just telling you to Fmove F C the solo goes something like this i guess:
e---------------------
B---------------------
G-6-8-6-8-6-8-6-8-6-8-
D---------------------
A---------------------
E---------------------

BA

e-------------------------
B-------------------------
G---6---6---6---6-8-9-8-6-
D-8---8---8---8-----------
A-------------------------
E-------------------------

BA

E B F A

E B F A

E B F A A B

Verse 4

CStop sign Ebroken and the Ameter's going Cdown CWild dogs are Erunning themAselves into the Cground CEverything was Eclear for that Amoment in Ctime CIf I don't come Eback Athrow me a Cline

Verse 5

CAll the docks are Fquiet there's something Cwrong CAnd there's no ships coming Fin I lock, step, I'm Cgone CWhere there once was a Friot there's something Cwrong CThere's a whole lotta Fnothing I lock step I'm Cgone JEUNDKIE MCAN INTRO\CHORUS-A D on GTR 2-
|-------5-----5-----5-----5-------------5-----5-----5---5---|
|----------8-----8-----8-----8-------------7-----7----7---7-|
|---6------------------------------7------------------------|
|-----------------------------------------------------------|
|-----------------------------------------------------------|
|-----------------------------------------------------------|

Verse 1

Athe common man doesn't suffer pain like this Donly the soul that has never been kissed Alet us adore our beautiful son Dhe's ridin on the rivers of babylon Abootin up and shootin up bring on the brightness see the Dson of god is comin up and i see a likeness Ainternalize the lunacy the misery is showin when you're Dbrought up you're caught up in a system that is goin PRE CHORUS- Fno one answeres no one Dtakes that call from you (repeat)then E

Chorus

(A D)+ INTRO) junkyman tell em what your story is

Verse 2

waAMteEr water water water i desire some parents house is on fire slowly the house gonna burn to the ground the neighborhood will watch without a sound will someone be a witness please tell me that he's crazy but he's not and they know that and they can't get him cause he's not crazy beat him lock him knock him take away his authority hit em ship em club em, submitted conformity PRE CHORUS- Fno one answeres no one Dtakes that call from you(repeat)then E

Chorus

(A D)+ INTRO) junkyman tell em what your story is

Bridge

my hand went blind, clairvoyant, pure in the veins i make love to my trance sister went on and my trance parents see from the balcony i looked out on the big field it opens like the cover of an old bible and out come the wolves! out come the wolves their paws trampling in the snow the alphabet i stand on my head and watch it all go away

Verse 3

bootin up shootin up and bring on the brightness see the sun of god is comin up and there is a likeness internalize the lunacy the misery is showin when you're brought up you're caught up in a system that is goin PRE CHORUS- Fno one answeres no one Dtakes that call from you(repeat)then E

Chorus

(A D)+ INTRO) junkyman tell em what your story is END- LISTED M.I.A-

Intro

X2
e---------------------------------
B-7-7-7-7-8-8-8-8-7-7-7-7-7-5-3-0-
G---------------------------------
D---------------------------------
A---------------------------------
E---------------------------------

Verse 1

BGoddamn Eit Bman almost had itE B BStuck in the sewer EbeBneath all the maggotsE B BI ain't foolingE BI been pursuing EA Bway to get out of Ethese Bdirty old ruinsE

Chorus

BI'm Echecking out I'm Enever coming back aFgain BI'm Echecking out I'm Elisted M.I.FA.

Verse 2

BGoddamn Eit Bman almost had itE B BThey threw out the doorE Bcalling me a faggotE B BI ain't done EI Bonly yet begun EWest BOakland is the place Ewhere BI'm coming fromE

Chorus

BI'm Echecking out I'm Enever coming back aFgain BI'm Echecking out I'm Elisted M.I.FA.

Solo

e----------------------------------------------
B----------------------------------------------
G---------7-7-7-9-9-7------------7-7-7-9-9-7---
D-7-7-8-9-------------9--7-7-8-9-------------9-
A----------------------------------------------
E----------------------------------------------
e-----------------------------------------------
B-7-7-7-7-8-8-8-8-7-7-7-7-7-5-3-0-7-7-7-7-8-8-8-
G-----------------------------------------------
D-----------------------------------------------
A-----------------------------------------------
E-----------------------------------------------
e|----------------------------------------------
B|-8-7-7-7-7-7-5-3-/----------------------------
G|----------------------------------------------
D|----------------------------------------------
A|----------------------------------------------
E|----------------------------------------------

Bridge

AOh yeahF B AOh yeahF B AOh yeahF B

B A D F

Verse 3

BGoddamn Eit Bman almost had itE EWell I Bdid it again yeah EI Bdo it outta habitE B BI'm numbE Bit ain't no funE BI'm less than zero Ewhen you Badd up the sumE B play this during the 2nd part of the verse over the chords:
E-7-7-7-0-

B-7-7-7-0-

G--------- D--------- A--------- E---------

Chorus

BI'm checking out yeahE Bit ain't no doubt yeahE EA Bcourtship built from anger Eis to Bwhat it amountsE B BI almost had itE BI almost had itE EI Bcame so close man EI almost had it

Chorus

BI'm Echecking out I'm Enever coming back aFgain BI'm Echecking out I'm Elisted M.I.FA.

Chorus

BI'm Echecking out I'm Enever coming back aFgain BI'm Echecking out I'm Elisted M.I.FA. B E B END ON B- RUBY SOHO-

Intro

e|----------------------------|
B|----------------------------|
G|---0-----0-----0-----0------|
D|-----0-----0-----0-----0----|
A|-------2-----3--------------|
E|-3-----------------3--------|

Verse 1

CEchoes of rDeggae cGoming trough my bedroom Cwall CHavin' a party Dup next door but GI'm sitting here all Calone CTwo lovers in the Dbedroom and theG others start to Cshout CAll I've got is this Gblank stare And Dthat don't carry no clout at all

Chorus

GDestiBnation CunkGnown GRuby BRuby Ruby CRuby SoGho GDestiBnation CunkGnown GRuby BRuby Ruby CRuby SoGho

Verse 2

CHe's singingD and Gshe's there to lend a Chand CHe's seen his Dname on the marquee but Gshe will never underCstand COnce again he's lDeaving and Gshe's there with a tear in her Ceye CEmbraces with a Gwarm gesture it's Dtime, time to say goodbye

Chorus

GDestiBnation CunkGnown GRuby BRuby Ruby CRuby SoGho GDestiBnation CunkGnown GRuby BRuby Ruby CRuby SoGho

Bridge

C B C B G

e|-------------------2/33-2/33-2/33-2/33-2/33-2/33-|
B|-------------------2/33-2/33-2/33-2/33-2/33-2/33-|
G|-5-5-3-5-3-5-5-3-5-------------------------------|
D|-5-5-3-5-3-5-5-3-5-------------------------------|x2
A|-3-3-1-3-1-3-3-1-3-------------------------------|
E|-------------------------------------------------|

Verse 3

CRuby's heart ain't Dbeating cause Gshe knows the feeling is Cgone CShe's not the Donly one who knew that Gthere's something Cwrong CLittle lover's in the Ddistance as Gshe wipes a tear from her Ceye CRuby's fading Gout she disappears, it's Dtime, time to say goodbye

Chorus

GDestiBnation CunkGnown GRuby BRuby Ruby CRuby SoGho GDestiBnation CunkGnown GRuby BRuby Ruby CRuby SoGho GRuby BRuby Ruby CRuby SoGho GRuby BRuby Ruby CRuby SoGho GRuby BRuby Ruby CRuby SoGho GRuby BRuby Ruby CRuby SoGho

Chorus

GDestiBnation CunkGnown GRuby BRuby Ruby CRuby SoGho GDestiBnation CunkGnown GRuby BRuby Ruby CRuby SoGho End on G DALY CITY TRAIN-

Verse 1

GHe was an artist and a Fwriter and a Cpoet and a Gfriend GIn a man's life he will Ftake a fall But how Clow he goes well that just Gdepends

Verse 2

GHe's shooting dope in the Fmen's room At the Cstation Daly City Gtrain GHave you ever seen an angel well I Fknow I have You see they'll Cstay for a while Gand they fly away

Chorus

CJackyl had a beer in his hand last time I Gseen him CWhen he rolled the dice you know he never thought twice GNever thought twice about being here CJackyl had a beer in his hand last time I Gseen him CWhen he rolled the dice you know he never thought twice GNever thought twice about being here

Verse 3

GSome grow up and Fsome grow old But Cwhat about the kid who never Glearned the rules GSpent all these years Fon this earth When you Clook back it's just a fGlicker of time

Verse 4

GJackyl was one of the ones who Fperished He was Cone of the ones who was already Gsaved GThrough all this evil and Fwreckage CHe maintained a sense of himGself

Chorus

CJackyl had a beer in his hand last time I Gseen him CWhen he rolled the dice you know he never thought twice GNever thought twice about being here

Chorus

CJackyl had a beer in his hand last time I Gseen him CWhen he rolled the dice you know he never thought twice GNever thought twice about being here

Solo

e--------------------------------------
B--------------------------------------
G-0-7-7-5-2-2-5-2-0-0-7-7-5-2-2-5-2-0--
D--------------------------------------
A--------------------------------------
E--------------------------------------

Verse 5

GSome men are in prison though they Fwalk the streets at night Other Cmen who got the lockdown are Gfree as a bird in flight...

C F G F F G F C

Chorus

CJackyl had a beer in his hand last time I Gseen him CWhen he rolled the dice you know he never thought twice GNever thought twice about being here CJackyl had a beer in his hand last time I Gseen him CWhen he rolled the dice you know he never thought twice GNever thought twice about being here

C F G F F G F C

END- JOURNEY TO THE END OF EAST BAY-
BASS INTRO-
e|-----------------------------------------------|
B|-----------------------------------------------|
G|-------------4---4---------6-9-6---------------|
D|---2-3-4-5-5---5---5-5-5/7-------7-3-----------|
A|-3-------------------------------------0-1-2---|
E|-------------------------------------1---------|
e|--------------------------------------------------|
B|--------------------------------------------------|
G|--------------------------------------------------|
D|---2-3-4-5-5-5-5-5-5-5-3-------------2p0----------|
A|-3-------------------------0-1-2-3-3-----3p0------|
E|-------------------------1--------------------3p0-|
e|-----------------------------------------------|
B|-----------------------------------------------|
G|-------------4---4---------6-9-6---------------|
D|---2-3-4-5-5---5---5-5-5/7-------7-3-----------|
A|-3-------------------------------------0-1-2---|
E|-------------------------------------1---------|
e|--------------------------------------------------------|
B|--------------------------------------------------------|
G|--------------------------------------------------------|
D|---2-3-4-5-5-5-5-5-5-5-3-3-3-3-2-2-2-2-0-0-0-0----------|
A|-3---------------------------------------------3p0------|
E|----------------------------------------------------3p0-|

A A C E

C G A F

C G F

C G A F

C G F

Verse 1

CReconcile Gto the belief conAsumed in sacred Fground for me CThere wasn't always a Gplace to go But there was Aalways an urgent Fneed to belong CAll these bands and Gall this people AAll these friends and Fwe were equals but CWhat you gonna do Gwhen everybody goes Aon withFout you

Chorus

To the Cend to the Gend I'll Ajourney to the Fend To the Cend to the Gend I'll Ajourney to the Fend

C G A F

To the E-E-end E-E-end To the Cend to the Gend I'll Ajourney to the Fend

Verse

2 CStarted in '87 Gended in '89 AYou got a garage or an Famp we'll play anytime CIt was just the four of us,G yeah man the core of us AToo much attention unaFvoidably destroyed us

Verse 3

CFour kids on tour Gthree thousand miles AIn a four door car Fnot knowing what was going on CYou got a million years Git would turn out like this AHell no, no premoFnition could've saved us

Chorus

To the Cend to the Gend I'll Ajourney to the Fend To the Cend to the Gend I'll Ajourney to the Fend

C G A F

To the E-E-end E-E-end To the Cend to the Gend I'll Ajourney to the Fend

A A C E

C G A F

C G F

C G A F

C G F

Verse 4

CMatty came from Gfar away Afrom New Orleans Finto the East Bay CHe said this is a GMecca I said Athis ain't no Mecca man, Fthis place is fucked CThree months go by Ghe had no home Ahe had no food Fhe's all alone CMatty said fool me Gonce shame on you He said Afool me twice he went Fback to New Orleans

Chorus

To the Cend to the Gend I'll Ajourney to the Fend To the Cend to the Gend I'll Ajourney to the Fend

C G A F

To the E-E-end E-E-end To the Cend to the Gend I'll Ajourney to the Fend END WITH-

C C G G A A F F F

CSHCE'GS GAUATOAMAFTIFC-C

Verse 1

CThe way that she Gmoves well CI was aGroused FImpowered imGpassioned by Cevery move CIt's so cold outGside we need a Cplace to Ghide Go inFto the Gclub to thaw Cout for the night

Chorus

FShe's automatic so automatic GThe way that she moves the way that she moves FShe's automatic so automatic GThe way she moves...

Verse 3

CSituation so Gtricky I was Cfeeling so Gproud The Fbass and the Gdrums the Cmusic so loud CShe asked me if GI would Cstand at her Gside Like Fglue that I Gwould until the Cend of the night

Chorus

FShe's automatic so automatic GThe way that she moves the way that she moves FShe's automatic so automatic GThe way she moves Cyeah CThe Gway she moves Cyeah CI said the Gway she moves Cyeah CI said the Gway she movesC G C END ON C OLD FRIEND-(another cool ska song)

Intro

      Bm        D     Bm        D     Bm        D    A         E
e|-------------------------------------------------2-0--2-0--2-0--2-0--|
B|---------------------------------------------------------------------|
G|--4~-4--4-4-2-----4~-4--4-4-2-----4~-4--4-4-2------------------------|
D|--------------4---------------4---------------4----------------------|
A|---------------------------------------------------------------------|
E|---------------------------------------------------------------------|

Intro

x2

Chorus

AGood morning Eheartache You're like an Fmold friend, come to sDee me again AGood morning Eheartache You're like an Fmold friend, come to sDee me again

Verse 1

AWake uEp, you're in FmCleveland aDgain It's a Asolid Eline that Fmnever Dends I got AstoriesE that you'll Fmnever beDlieve And I Aknow it, EI wear it, I Fmwear it on Dmy sleeve

Verse 2

AThere must be Esomething 'bout Fmyou that I Dliked But right Ahere in this Erain, you know it Fmjust don't seem Dright I Aalways go Eout, I Fmnever Dhide But in AClevelandE, I should've Fmstayed inDside

Chorus

AGood morning Eheartache You're like an Fmold friend, come to sDee me again AGood morning Eheartache You're like an Fmold friend, come to sDee me again

Verse 3

AJustiEfy my Fmlove for Dyou And I Aknow it runs Edeep through Fmyour body Dtoo From the Acold blackEtop to the Fmhot conDcrete In the Aold tin Evan, it Fmain't so sDweet

Chorus

AGood morning Eheartache You're like an Fmold friend, come to sDee me again AGood morning Eheartache You're like an Fmold friend, come to sDee me again

Intro

      Bm        D     Bm        D     Bm        D    A         E
e|-------------------------------------------------2-0--2-0--2-0--2-0--|
B|---------------------------------------------------------------------|
G|--4~-4--4-4-2-----4~-4--4-4-2-----4~-4--4-4-2------------------------|
D|--------------4---------------4---------------4----------------------|X2
A|---------------------------------------------------------------------|
E|---------------------------------------------------------------------|

Bridge

Somewhere in AAmericaE F ThDrough... The Acity atE nightF D AWe were fEar from homFe D But you kAnow,E it's gonna Fbe alDright

Solo

Verse 4

The unAfortunate get Epreyed on by Fmvultures' eDyes 8A6 Ecents in these Fmpockets of Dmine You can Atake my Emoney, you can Fmtake my Dtime But you Acan't take my Eheart, it's in the Fmcity beDhind

Chorus

AGood morning Eheartache You're like an Fmold friend, come to sDee me again AGood morning Eheartache You're like an Fmold friend, come to sDee me again

Outro

GA A E

A E Fm D

A E Fm D

A E Fm D

ADISOERDERF AND DDISAARRAY-

Intro

F C B x4

Verse 1

FBusiness man come Cshake my Bhand FShow me numbers that CI underBstand FYour my candle I'm you Cburning Bwick FTwo sides cComing in Bquick

Chorus

ESay goodbye when you see me sign B C CNow I'm crucified! FCrucify-y-y-y-Cy Bme

Verse 2

FThe ground is fertile and the Cgrass is Bgreen FSo many Cthings to be Bseen FSo many Cbands to be Bheard FJust for once can CI be igBnored

Chorus

ESay goodbye when you see me sign B C CNow I'm crucified! FCrucify-y-y-y-Cy Bme

F

B DGE

F C B C

END- THE WARS END-

Intro

e-----------3---------2-
B---------3---------3---
G-------0---------2-----
D-----0---------0-------
A---2---------0---------
E-3---------------------

C B A G

Verse 1

GLittle DSammy was a punk rockCerB A G GYou know his Dmother didn't understand ChimB A G GWent into his Droom and smashed his Billy Brag reCcordB A G GDidn't want him to Dhear that communist ClectureC

Verse 2

GLittle DSammy was a punk rockCerB A G GYou know his Dmother tried to take him to CwarB A G

Chorus

GWoah! DSammy now the war is CoverB A G GWoah! DSammy now we're at the war's CendB A G

Verse 2

GLittle DSammy was a punk rockCerB A G GNow it's Dtime for you to leave ChomeB A G

Chorus

GWoah! DSammy now the war is CoverB A G GWoah! DSammy now we're at the war's CendB A G GWe're at the war's end!D C B A G (repeat) END- YOU DON'T CARE NOTHIN'
    F    G    C    A
e---X----X----X----X----
B---X----X----X----X----
G---X----X----5----X----
D---3----5----5----7----
A---3----5----3----7----
E---1----3----X----5----
Lead:
e|---8-8--8-8--8-8--8-8--8-8-8-8-----------------|
B|---8-8--8-8--8-8--8-8--8-8-8-8-[x3]------------|
G|------------------------------------10-(bend)--|
D|-----------------------------------------------|
A|-----------------------------------------------|
E|-----------------------------------------------|

Intro

C G A F

C G A F

C

Verse 1

AA cat lies Fawake when it sleeps CWas she conscious of her Gown miseries AWill the agony Fof her pain CWin her to enlightenment and Gset her conscience free

Prechorus

PM) ADo you really wanna Fknow what's happening CDo you really wanna Gknow what's going on AHey girl you better Fplease take a look around CExplore your heart and Gfind out for yourself

Chorus

CJenny DeFmilo, Cyou don't Fcare nothin' about Cme CJenny DeFmilo, well you Cdon't Gcare nothin' abFout me

Verse 2

AI never really Fgot a reason CNever had a use for one Gbefore but now I Aknow That there's Fnow a prize CBoth for the wise and the unGwise

Prechorus

PM) ADo you really wanna Fknow what's happening CDo you really wanna Gknow what's going on AHey girl you better Fplease take a look around CExplore your heart and Gfind out for yourself

Chorus

CJenny DeFmilo, Cyou don't Fcare nothin' about Cme CJenny DeFmilo, well you Cdon't Gcare nothin' abFout me

Bridge

C G A F C B

AAbout me, Fabout me, Cabout me, Gyeah yeah about me AAbout me, Fabout me, Cabout me, Gyeah yeah nothin' about Cme

Chorus

CJenny DeFmilo, Cyou don't Fcare nothin' about Cme CJenny DeFmilo, well you Cdon't Gcare nothin' abFout me

Outro

I said you Cdon't Gcare nothin' abFout me Aaah... I said you Cdon't Gcare nothin' abFout me I said you Cdon't Gyeah yeah yFeah End on C AS WICKED-(THIS IS THE BEST SONG EVER)

D G D G D G A G

D G D G D G A G

Verse 1

DI saw this old man Gon the street DHe was in a dumpster Alooking for something to eat DHe moved so slow like a Gdying dream DLike a machinist who got Acaught in the machine

Verse 2

DI saw this lady and Gshe was crying DShe said it's hard when Asomeone you love is dying DI saw this kid he's about Gfive years old DHe's in the park all Aalone and it's cold PRE CHORUS- DThere's Gsomething Acoming 'round

Chorus

DAs Gwicked as Dit may Gseem Das Gwicked as Aanything Gcould be DAs Gwicked as Dit may Gseem Das Gwicked as Aanything Gcould be

Verse 3

DI know this girl she's Gbarely alive Dshe's all haggard she's Aonly 25 DShe said she never had a Gfriend before I said Dhey girl I'll be your friend but Awho's keeping score

Verse 4

DI saw this other little Ggirl on the phone DHer mom comforts her from Afar far from home DThe little girl was very Ghesitant her Dbest friend lie dead Aon the pavement PRE CHORUS- DThere's Gsomething Acoming 'round

Chorus

DAs Gwicked as Dit may Gseem Das Gwicked as Aanything Gcould be DAs Gwicked as Dit may Gseem Das Gwicked as Aanything Gcould be

Bridge

DNa na na na na na na na naG A ANa na na na na na na na naG D DNa na na na na na na na naG A ANa na na na na na na na naG D
e-3--10-
B-3--10-  REPEAT THIS A FEW TIMES)
G-------
D-------
A-------
E-------

Verse 5

DI always end up Gback on the hill Dlooking down Aat the landfill DI always go there Gwhen I can DMy friend Marty said ATim you're a lucky man PRE CHORUS- DThere's Gsomething Acoming 'round

Chorus

DAs Gwicked as Dit may Gseem Das Gwicked as Aanything Gcould be DAs Gwicked as Dit may Gseem Das Gwicked as Aanything Gcould beD END- AVENUES & ALLEYWAYS-

Intro

G D G

Verse 1

GOi Oi Oi DI figured out the problem and the Cproblem is you DYou didn't see us coming now there's Cnothing you can do GTimes are gonna change so Cchange or step aside GIt's our point of view that Ctook you by surprise

Verse 2

DSomething's coming up yeah the Cnew dawn arrives DA generation's standing stand with Canger in their eyes DNo love in the city cuz Cthere's no connection DStricken by disease a Cracial infection

Chorus

DI'm a battering ram Ccoming through to Gyou DIn every alleyway Con every avenuGe GOi Oi Oi

Intro

G D G

Chorus

DI'm a battering ram Ccoming through to Gyou DIn every alleyway Con every avenuGe

Intro

G D G

Chorus

DI'm a battering ram Ccoming through to Gyou DIn every alleyway Con every avenuGe END- THE WAY I FEEL

Intro

F E D C B A

F G F G F G F G

e-------------------------------------------
B-5-5-5-9-5-5-5-5-5-9-5-5-5-4-0-0-0-4-5-4-0-
G-------------------------------------------
D-------------------------------------------
A-------------------------------------------
E-------------------------------------------

C

Verse 1

FPick me back Cup just to Gthrow me back Cdown FApologies too Clate when you're Gup against the wall FCompassion Cheals while duGplicity Ckills GYou say that I'm different you Gsay that I'm different FThe only thing different is the way I feel about Cyou

Chorus

CNa na na na na na na na Gna na na

Verse 2

FYou moved up the Cladder at a Gvery rapid Cspeed FWe moved meCthodically and Gcalmly FWhen you got to the Ctop you Gsaw eneCmies GYou say that I'm different you Gsay that I'm different FThe only thing different is the way I feel about Cyou

Chorus

CNa na na na na na na na Gna na na

F E D C B A

F G F G F G F G

e-------------------------------------------
B-5-5-5-9-5-5-5-5-5-9-5-5-5-4-0-0-0-4-5-4-0-
G-------------------------------------------
D-------------------------------------------
A-------------------------------------------
E-------------------------------------------

C

Verse 3

FIf I knew Cthen what GI know Cnow That it would Fall turn Cout like Gthis C FI'd sit Cback and I'd Gwatch you Csquirm GYou say that I'm different you Gsay that I'm different FThe only thing different is the way I feel about Cyou

Chorus

CNa na na na na na na na Gna na na

F E D C B A G

END- THERE YOU HAVE IT,THE BEST PUNK ROCK RECORD EVER MADE- IF THERE ARE ANY MESS UPS LET ME KNOW..... HAVE FUN WITH IT(NOT SEXUALLY) CHEERS BIG EARS-