Rancid - Listed M.I.A. Chords

Main Riff
Main Riff
 
No chord
Standard guitar tuning:
E
A
D
G
B
E
No capo
Intro/Chorus/Bridge:
G|-----------------------------------------------------|
D|-----------------------------------------------------|
A|-------------6-6-6-6-6-6-----------------------------|
E|-7-7-7-7-7-7-------------0-0-0-0-0-0-2-2-2-2-4-2-4-2-|
Verse/Bridge:
G|---------------|
D|---------------|
A|---------7-7-7-|
E|-7-7-7-7-------|

Adam