Relient K - What Can I Do Chords

 
No chord
Standard guitar tuning:
E
A
D
G
B
E
No capo

Verse

|-----------------|-----------------|-----------------|------------------|
|-----------------|-----------------|-----------------|------------------|
|-7-x-7-x-7-7-7-7-|-7-x-7-x-7-7-7-7-|-5-x-5-x-5-5-5-5-|-5-x-5-x-5-5-5-5--|
|-5-x-5-x-5-5-5-5-|-5-x-5-x-5-5-5-5-|-5-x-5-x-5-5-5-5-|-5-x-5-x-5-5-5-5--|
|-7-x-7-x-7-7-7-7-|-5-x-5-x-5-5-5-5-|-3-x-3-x-3-3-3-3-|-3-x-3-x-3-3-3-3--|
|-----------------|-----------------|-----------------|------------------|
|-----------------|-0---0---0-0-0-0-|-----------------|------------------|
|-----------------|-3---3---3-3-3-3-|-----------------|------------------|
|-7-x-7-x-7-7-7-7-|-0-x-0-x-0-0-0-0-|-5-x-5-x-5-5-5-5-|-5-x-5-x-5-5-5-5--|
|-5-x-5-x-5-5-5-5-|-4-x-4-x-4-4-4-4-|-5-x-5-x-5-5-5-5-|-5-x-5-x-5-5-5-5--|
|-7-x-7-x-7-7-7-7-|-5-x-5-x-5-5-5-5-|-3-x-3-x-3-3-3-3-|-3-x-3-x-3-3-3-3--|
|-----------------|-----------------|-----------------|------------------|
To the chorus
|-------0---------|
|-------3---------|
|-7-----0-----5---|
|-5-----4-----5---|
|-7-----5-----3---|
|-----------------|

Chorus

|-3-3-3-3-3-3-3-3-|-3-3-3-3-3-3-3-3-|-3-3-3-3-3-3-3-3-|-3-3-3-3-3-3-3-3--|
|-3-3-3-3-3-3-3-3-|-3-3-3-3-3-3-3-3-|-3-3-3-3-3-3-3-3-|-3-3-3-3-3-3-3-3--|
|-0-0-0-0-0-0-0-0-|-2-2-2-2-2-2-2-2-|-0-0-0-0-0-0-0-0-|-0-0-0-0-0-0-2-2--|
|-0-0-0-0-0-0-0-0-|-0-0-0-0-0-0-0-0-|-2-2-2-2-2-2-2-2-|-2-2-2-2-2-2-2-2--|
|-2-2-2-2-2-2-2-2-|-0-0-0-0-0-0-0-0-|-2-2-2-2-2-2-2-2-|-3-3-3-3-3-3-0-0--|
|-3-3-3-3-3-3-3-3-|-2-2-2-2-2-2-2-2-|-0-0-0-0-0-0-0-0-|------------------|
-3-3-3-3|-3-3-3-3-3-3-3-3-|-0-0-0--------------------|
-3-3-3-3|-3-3-3-3-3-3-3-3-|-3-3-3--------------------|
-2-2-2-2|-0-0-0-0-0-0-0-0-|-0-0-0---5-5-5-5-5-5-5-5-5|
-2-2-2-2|-2-2-2-2-2-2-2-2-|-4-4-4---5-5-5-5-5-5-5-5-5|
-0-0-0-0|-3-3-3-3-3-3-3-3-|-5-5-5---3-3-3-3-3-3-3-3-3|
--------|-----------------|--------------------------|

Outro

...Let one man...)part after piano
|-3-3-3-3-3-3|-3-3-3-3-3-3|-3-3-3-3-3-3|-3-3-3-3-3-3|
|-3-3-3-3-3-3|-3-3-3-3-3-3|-3-3-3-3-3-3|-3-3-3-3-3-3|
|-0-0-0-0-0-0|-0-0-0-0-0-0|-2-2-2-2-2-2|-0-0-0-2-2-2|
|-0-0-0-0-0-0|-2-2-2-2-2-2|-2-2-2-2-2-2|-2-2-2-0-0-0|
|-2-2-2-2-2-2|-2-2-2-2-2-2|-0-0-0-0-0-0|-3-3-3-0-0-0|
|-3-3-3-3-3-3|-0-0-0-0-0-0|-0-0-0-0-0-0|------------|
Hope i pick it up right) Enjoy!