Rocket Summer - Colors Chords

 
No chord
Eb guitar tuning
No capo
E-----------|
B--5/7/5/3--|
G-----------|
D-----------|
A-----------|
E-----------|
Verse/Intro
E---0--0--0--0----|
B---3--3--3--3----|
G---0--0--2--2----|
D---0--2--0--2----|
A---0--2--2--0----|
E---3--0--x--x----|

Chorus

E---0--0--0--0----|
B---3--3--3--3----|
G---0--2--2--0----|
D---0--2--0--2----|
A---0--0--2--2----|
E---3--x--x--0----|

Bridge

The rest is right, the rest is wrong..)
E---0--0--0------|
B---3--3--3------|
G---0--2--2------|
D---0--2--0------|
A---0--0--2------|
E---3--x--x------|