Rufio - In My Eyes Chords

Pre - Verse Riff
Verse Riff
 

B

variations
         
         
         
         
X
1
2
3
4
1
6 fr
         
         
         
         
1
3
4
2
1
1
         
         
         
         
X
1
4
4
4
X
         
         
         
         
X
1
X
3
4
1
3 fr
         
         
         
         
3
2
1
1
1
4
8 fr
         
         
         
         
X
X
1
3
4
3

10 fr
         
         
         
         
X
4
3
1
2
1
         
         
         
         
X
3
2
1
1
5 fr
         
         
         
         
1
4
3
1
2
1
5 fr
         
         
         
         
X
X
3
1
2
1
5 fr
         
         
         
         
1
X
X
2
4
3

E

variations
3 fr
         
         
         
         
X
4
3
1
2
1
6 fr
         
         
         
         
X
1
2
3
4
1
         
         
         
         
X
X
1
2
4
3
3 fr
         
         
         
         
X
4
3
1
2
X
8 fr
         
         
         
         
4
3
1
1
1
X
8 fr
         
         
         
         
3
2
1
1
1
4

11 fr
         
         
         
         
1
3
4
2
1
1
3 fr
         
         
         
         
1
3
4
1
1
1
5 fr
         
         
         
         
X
X
1
3
4
2
3 fr
         
         
         
         
X
X
3
1
1
1
         
         
         
         
1
X
2
3
4
         
         
         
         
3
1
X
X
X
         
         
         
         
2
1
3
4

7 fr
         
         
         
         
X
4
3
1
2
X
10 fr
         
         
         
         
X
1
3
4
2
1
         
         
         
         
1
3
4
2
1
1
5 fr
         
         
         
         
X
4
3
1
2
1
3 fr
         
         
         
         
X
X
1
2
4
3
         
         
         
         
X
X
3
2
1
1
8 fr
         
         
         
         
X
1
3
3
3
1
10 fr
         
         
         
         
4
3
1
1
1
X

10 fr
         
         
         
         
3
2
1
1
1
4
         
         
         
         
X
3
2
1
3 fr
         
         
         
         
X
1
2
3
4
1
8 fr
         
         
         
         
1
3
4
2
1
1
3 fr
         
         
         
         
X
1
X
3
4
1
5 fr
         
         
         
         
3
2
1
1
1
4
10 fr
         
         
         
         
X
X
1
3
4
3

12 fr
         
         
         
         
X
4
3
1
2
1
3 fr
         
         
         
         
X
No chord
Standard guitar tuning:
E
A
D
G
B
E
No capo
Key: B Chords used: F/A - x032xx or 587xxx B - x13331 or 688766

Intro

E You're gracefulGm your grace F/Afalls down aBround me F/Ain my eyes E You're lovelyGm your love F/Aleaves So easiBly F/Ain my eyes

Interlude

Gm--F--Bb--Eb x2
Guitar 2:

Gm F B E

e|------------|------------|------------|---------3-5- B|------6-4-3-|------6-4-3-|------6-4-3-|---3-4-6----- G|-3--3-------|-5--3-------|-3--3-------|-5----------- D|------------|------------|------------|------------- A|------------|------------|------------|------------- E|------------|------------|------------|-------------
        Gm                F                B              E
e|-6-----13-11-10-|--------13-11-10-|--------13-11-10-|------------------
B|----11----------|-13--11----------|-11--11----------|-13--11--10--11\6-
G|----------------|-----------------|-----------------|------------------
D|----------------|-----------------|-----------------|------------------
A|----------------|-----------------|-----------------|------------------
E|----------------|-----------------|-----------------|------------------

Verse 1

Gm Another Eday left waiting B alone in my Froom with no calls from Gmyou So I call you up E but you let me down B falling down around Feveryone except GmyourselfF/A

Refrain

B I thought that this would never GmendF/A B things were so clear but they fell GmthroughF/A B High hopes of problems never Efailed thinking of the Fbest

Chorus 1

E You're gracefulGm your grace F/Afalls down aBround me F/Ain my eyes E You're lovelyGm your love F/Aleaves So easiBly F/Ain my eyes E In my eyes

Interlude

Gm--F--Bb--Eb
Guitar 2:

Gm F B E

e|------------|------------|------------|-------------- B|------6-4-3-|------6-4-3-|------6-4-3-|-------------- G|-3--3-------|-5--3-------|-3--3-------|-5--3--2--3--- D|------------|------------|------------|------------3- A|------------|------------|------------|-------------- E|------------|------------|------------|--------------

Verse 2

Gm Another Eday left crying B with you in my Froom with nothing left to Gmdo You say that it's not right E you said its over now B Stand still anFnoyed with no one aGmroundF/A

Chorus 2

E You're gracefulGm your grace F/Afalls down aBround me F/Ain my eyes E You're lovelyGm your love F/Aleaves So easiBly F/Ain my eyes

C

Outro

Gm-Eb-Bb-F x4 Gm--Gm(hold)
Guitar 2:

Gm E B F

e|------------|------------|------------|---------3-5- B|------6-4-3-|------6-4-3-|------6-4-3-|---3-4-6----- G|-3--3-------|-5--3-------|-3--3-------|-5----------- D|------------|------------|------------|------------- A|------------|------------|------------|------------- E|------------|------------|------------|-------------
Very fast this part:

Gm

e|-10-------11----10-------10-------13-11-10- B|----11-11----11----11-11----11-11---------- G|------------------------------------------- D|------------------------------------------- A|------------------------------------------- E|-------------------------------------------
                   E
e|-10-------11----10-------10-------13-11-10-
B|----11-11----11----11-11----11-11----------
G|-------------------------------------------
D|-------------------------------------------
A|-------------------------------------------
E|-------------------------------------------
                   B
e|-10-------11----10-------10-------13-11-10-
B|----11-11----11----11-11----11-11----------
G|-------------------------------------------
D|-------------------------------------------
A|-------------------------------------------
E|-------------------------------------------
  F
e|-----------------------
B|-13--11--10--11--------
G|-----------------------
D|-----------------------
A|-----------------------
E|-----------------------
         Gm                E                 B                  F
e|--------13-11-10-|--------10-11--10-|--------13-11-10-|------------------
B|-11--11----------|-11--13-----------|-11--11----------|-13--11--10--11\6-
G|-----------------|------------------|-----------------|------------------
D|-----------------|------------------|-----------------|------------------
A|-----------------|------------------|-----------------|------------------
E|-----------------|------------------|-----------------|------------------
         Gm                E                 B                  F
e|--------13-11-10-|--------10-11--10-|--------13-11-10-|------------------
B|-11--11----------|-11--13-----------|-11--11----------|-13--11--10--11\6-
G|-----------------|------------------|-----------------|------------------
D|-----------------|------------------|-----------------|------------------
A|-----------------|------------------|-----------------|------------------
E|-----------------|------------------|-----------------|------------------
          Gm
e|--------------------
B|-11--------------11-
G|--------------------
D|-----12-13-12-------
A|--------------13----
E|--------------------