Ryan Bingham - For What Its Worth Chords

 
No chord
Standard guitar tuning:
E
A
D
G
B
E
No capo

Intro

|------------------------------------------------(0)------|
|------------------------------------------------(0)------|
|--0---------------------------------------------(0)------|
|----0-------------------------------------------(0)------|
|----------5-4-5---4--4-5--4h5p4p2p0-------0--2-----------|
|--------4-----------------------------0h2----------------|
Intro into Verses & Verses:
|---0---2-0-----0------0---2-0-----0------2-------4-------|
|---0---------0--------0---------0--------0-------0-------|
|---0------------------0------------------0-------0-------|
|------------------0h2---------------2/4------4/5---------|
|---------------------------------------------------------|
|--0--------0------0h2---2-----2-----2/4-------4/5--------|
This works well if you want to simplify everything for the verses to make it easier for one guitar to sound like a decent accompianment to the vocals (just use these chords instead essentially):
|--0---2--4--5--|
|--0---0--0--0--|
|--0---0--0--0--|
|--0---2--4--5--|
|--0---0--0--0--|
|--0---2--4--5--|
For what it's worth A nickels just a nickel son Your pleasure becomes your pain It's gonna hurt Your out on the road Your just an old horse walking alone Shaken off the miles been rode Pardon me Through the valley of the shadows Wickedness unravels Some crooked man Dealing cards to an honest man Stealing up all his farming land It's a damn shame His oldest son is starving now There ain't no mule to pull the plow There ain't no rain Cause all the crops are burning dry Except for the tear in his mama's eye In her eye
|--/10--10/12/10--9--9/12--19--10/12/10--9---3---0----|
|------------------------------------------------0----|
|------------------------------------------------0----|
|--/10--10/12/10--9--9/12--10--10/12/10--9---3---0----|
|------------------------------------------------0----|
|--/10--10/12/10--9--9/12--10--10/12/10--9---3b--0----|
Everything is fine

Solo

|---------------------------------|------------------------------------------------|
|---------------------------------|------------------------------------------------|
|---/9--7/5--5--/10----/12--/12---|--9/7/5--7--/12--/14--12--9--5-5----------------|
|-------------------12------------|------------------------------------------------|
|---------------------------------|------------------------------------------------|
|---------------------------------|------------------------------------------------|
With one touch The water turns to rust Tell me who is there to trust Anymore Your falling fast You're just a rock in glass Running from your shattered past For what it's worth Said a nickels just a nickel son Your pleasure becomes your pain It's gonna hurt Your out on the road Your just an old horse walking alone Shaken off the miles been rode Pardon me Through the valley of the shadows Wickedness unravels [ Lyrics from: With one touch Said the water turns to rust Tell me who is there to trust Anymore When your falling fast You're just a rock in glass Running from your shattered past Tell me all you need Is a guitar string and a bended knee A country boy, that's all you need to be Enjoy and Please Comment or Rate!!! I am planning on doing the part after the silence but it will be under a different tab. Enjoy!!