Saybia - I Surrender Chords

 
         
         
         
         
         
X
2
3
1
5 fr
         
         
         
         
         
1
3
4
1
1
1
5 fr
         
         
         
         
         
X
X
1
1
1
8 fr
         
         
         
         
         
X
3
2
4
1
2 fr
         
         
         
         
         
X
1
4
4
4
7 fr
         
         
         
         
         
X
1
3
4
2

9 fr
         
         
         
         
         
X
4
3
1
2
X
12 fr
         
         
         
         
         
X
1
3
4
2
1
5 fr
         
         
         
         
         
X
         
         
         
         
         
X
3
2
1
3 fr
         
         
         
         
         
X
1
2
3
4
1
8 fr
         
         
         
         
         
1
3
4
2
1
1
3 fr
         
         
         
         
         
X
1
X
3
4
1
5 fr
         
         
         
         
         
3
2
1
1
1
4
10 fr
         
         
         
         
         
X
X
1
3
4
3

12 fr
         
         
         
         
         
X
4
3
1
2
1
3 fr
         
         
         
         
         
X
         
         
         
         
         
3
2
4
3 fr
         
         
         
         
         
1
3
4
2
1
1
         
         
         
         
         
2
1
3
4
3 fr
         
         
         
         
         
X
X
3
2
1
1
5 fr
         
         
         
         
         
X
X
1
3
4
3
7 fr
         
         
         
         
         
X
4
3
1
2
1

10 fr
         
         
         
         
         
X
1
2
3
4
X
10 fr
         
         
         
         
         
X
1
3
3
3
1
12 fr
         
         
         
         
         
3
2
1
1
1
4
         
         
         
         
         
X
X
1
3
2
2 fr
         
         
         
         
         
X
4
3
1
2
1
5 fr
         
         
         
         
         
X
1
2
3
4
1
5 fr
         
         
         
         
         
X
1
4
4
4
X
7 fr
         
         
         
         
         
4
3
1
1
1
X
7 fr
         
         
         
         
         
3
2
1
1
1
4

10 fr
         
         
         
         
         
1
3
4
2
1
1
12 fr
         
         
         
         
         
X
X
1
3
4
3
5 fr
         
         
         
         
         
X
X
No chord
    
Standard guitar tuning:
E
A
D
G
B
E
Capo on 2 fret
e] --Am0-- --C0-- --G3-- --D2-- B] --1-- --1-- --3-- --3-- G] --2-- --0-- --0-- --2--
 D] --2--     --2--     --0--     --0--
 A] --0--     --3--     --2--     -----
 E] -----     -----     --3--     -----

Intro

/ x8
e]----0--0--0--0----0----0----0----0----0--0--0--0--0--0--0----0---0----0-|
B]---10-10-10--8----8----7----7----5----5--5--5--3--3--3--1----1---5----5-|
G]----9--9--9--9----9----8----8----6----6--6--6--4--4--4--2----2---6----6-|
D]---10-10-10-10---10----9----9----7----7--7--7--5--5--5--3----3---7----7-|
A]------------------------------------------------------------------------|
E]------------------------------------------------------------------------|
e]-0--0--0--0----0----0----0----0----0--0--0--0--0--0--0----0---0---------|
B]10-10-10--8----8----7----7----5----5--5--5--3--3--3--1----1---5---------|
G]-9--9--9--9----9----8----8----6----6--6--6--4--4--4--2----2---6---------|
D]10-10-10-10---10----9----9----7----7--7--7--5--5--5--3----3---7---------|
A]------------------------------------------------------------------------|
E]------------------------------------------------------------------------|
Am A million suns are glowing in the Cnight Everything is quGiet Except for all the Dvoices in my head That say your nAmame Tonight I'm letting goC About to give iGn D D G I Dsurrender myself AmInto the arms of a Cbeautiful stranger G I Dsurrender myself to you Am- to Cyou G I Dsurrender myself AmInto the arms of a Cbeautiful stranger Am I surrender myself to youAm - to Cyou C Am There's only one bridge left for Cme My heart is almost Gfree Beautiful by my Dside But all I think about is yoAmu And tonight I'm letting goC About to give inG D G I Dsurrender myself AmInto the arms of a Cbeautiful stranger G I Dsurrender myself to you Am to yoCu G I Dsurrender myself AmInto the arms of a Cbeautiful stranger G I Dsurrender myself to youAm - to yCou G I Dsurrender myself AmInto the arms of a Cbeautiful stranger G I Dsurrender myself to yoAmuuuuu C Who really lGoves me D Am C You really lGove me D Am C My beautifuGl strangeDr Am C You really lGove me liDke I loveAm you C
End
                                                                       / x8
e]----0--0--0--0----0----0----0----0----0--0--0--0--0--0--0----0---0----0-|
B]---10-10-10--8----8----7----7----5----5--5--5--3--3--3--1----1---5----5-|
G]----9--9--9--9----9----8----8----6----6--6--6--4--4--4--2----2---6----6-|
D]---10-10-10-10---10----9----9----7----7--7--7--5--5--5--3----3---7----7-|
A]------------------------------------------------------------------------|
E]------------------------------------------------------------------------|
e]-0--0--0--0----0----0----0----0----0--0--0--0--0--0--0----0---0---------|
B]10-10-10--8----8----7----7----5----5--5--5--3--3--3--1----1---5---------|
G]-9--9--9--9----9----8----8----6----6--6--6--4--4--4--2----2---6---------|
D]10-10-10-10---10----9----9----7----7--7--7--5--5--5--3----3---7---------|
A]------------------------------------------------------------------------|
E]------------------------------------------------------------------------|