Secondhand Serenade - Broken Power Chords

 
No chord
Standard guitar tuning:
E
A
D
G
B
E
No capo
|-x---------x---------x--|
|-0---------0---------0--|
|-x---------x---------x--|
|-9---------6---------7--|
|-7---------6---------7--|
|-9---------4---------5--|
For the intro/verses its basically those 3 chords over and over again until you get to chorus it switches up a bit...

Chorus

|-x---------x----------x---------x------|
|-0---------0----------0---------0------|
|-x---------x----------x---------x------|
|-9---------6----------7---------9------|
|-7---------6----------7---------9------|
|-9---------4----------5---------7------|
Once again listen to the song for the strumming pattern...its similar to the verses but just play each chord for double the length...

Bridge

Next Comes the bridge which is similar to the rest of the song but he once again it up a little more....
|-x---------x----------x---------x------|
|-0---------0----------0---------0------|
|-x---------x----------x---------x------|
|-9---------7----------6---------7------|
|-7---------7----------6---------7------|
|-9---------5----------4---------5------|
Once again listen for the strumming pattern, he plays each chord similar, but for double length of the verses... Well thats basically it, i did my best...i just started playing guitar recently so all amazing guitarists out there dont laugh at my inferior skills...but yea...Secondhand - Broken...