Slipknot - Disasterpiece Chords

Main Riff
Main Riff
 
No chord
Standard guitar tuning:
E
A
D
G
B
E
No capo

Intro

E|-----------3--------|
B|-00-3--00----00-3-0-|

Verse

B|-003-003-003--5650-|

Chorus

E|-----|-33333333-888888888-|-----------------|
B|-000-|--------------------|-1111-3333-1111-|

Bridge

A|----------------|-----------9---------987-------|
E|-------------34-|-------/7--------/7------------|
B|----0-343-0-----|-0~------------------------0~--|
B|-000-333-2-|-12\-|-0--3--2----0--5--6-|-1/16\1-|

Outro

E|-------------34-|
B|----0-343-0-----|