Slipknot - Eyeless Chords

Intro Riff
Verse Riff
Main Riff
 
7 fr
         
         
         
         
1
3
4
2
1
1
         
         
         
         
X
2
1
X
3
         
         
         
         
X
1
4
4
4
X
         
         
         
         
X
1
3
3
3
1
4 fr
         
         
         
         
4
3
1
1
1
X
4 fr
         
         
         
         
3
2
1
1
1
4

9 fr
         
         
         
         
X
X
1
3
4
3
11 fr
         
         
         
         
X
4
3
1
2
1
No chord
Standard guitar tuning:
E
A
D
G
B
E
No capo
          intro
          F#|-------1-----------------|
           B|-0-0-1---0-1-0-0-1-0-0-1-|
chorus
          F#|-------------------------|

B|-0-0-1-3-0-1-0-0-1-0-0-1-|

verse
          F#|---------------|

B|-0-0-1-3-0-0-1-|

fill
          F#|------------------------|

B|-99-8-99-7-99-8-99-8-99-|

break
          F#|---------------------|

B|-0-0-0-6/0-0-1-0-0-1-|

break2
          F#|---------|

B|-0-6-3-4-|