Slipknot - (Sic) Chords

Main Riff
Chorus Riff
Breakdown Riff
 
7 fr
         
         
         
         
1
3
4
2
1
1
         
         
         
         
X
2
1
X
3
         
         
         
         
X
1
4
4
4
X
         
         
         
         
X
1
3
3
3
1
4 fr
         
         
         
         
4
3
1
1
1
X
4 fr
         
         
         
         
3
2
1
1
1
4

9 fr
         
         
         
         
X
X
1
3
4
3
11 fr
         
         
         
         
X
4
3
1
2
1
No chord
Standard guitar tuning:
E
A
D
G
B
E
No capo

Intro

          C|-0-0--0-0-0--0-0-0--0-0-0-1-----|

Intro 2

          C|-0-0--0-0-0-0--0-0-0-0--0-0-0-0-1------|

Intro 3

B

          C|-2-1--0-0-0-1-----2-1--0-0-0-1---------|
Pre Verse: (Wait until guitar plays one way through) C|-1/0--1/0--1/0--1/0--3-2-0-2-----------|

Verse

En

          C|-0-0-0--0----0-0-0-0-0--2-1-0-1--------|

Chorus

C|-1/0-1/0-1/0-1/0---5-4-3-4-------------| Pre Bridge:
          C|--5-4-3-4-----5-4-3-4----5-4-3-4-------|

Bridge

          C|--0--0--0--5b--0--0--0--3b-------------|

Bridge 2

          C|--x-x-x--x-x-x-0-x-x--x-x-x------------|
Want the order? Listen to the song then!