Slipknot - Surfacing Chords

Main Riff
Chorus Riff
 
No chord
Standard guitar tuning:
E
A
D
G
B
E
No capo
          Intro
          F#|---------------|
          B |---0-1-0-------|
Fast Heavy part..... then ("Don't you fucking judge me...")
          F#|---------------|---------------|
B |---001001------|---556556------|

Verse

this wasn't included in the original tab, but I know its there...)
          F#|---------------|
          B |---0-1---------| - "Running out of places to run..."
Cool fast riff...
          F#|-------76----------43-----|
B |---876----876---43---4321-|
          then
          B |-------------------32-----|
          F#|--------21-----------21---|
B |---3232----32---32-----32-| Heavy part again ("Don't you fucking judge me...")
          F#|------------|
B |---556556---| Closing Riff
          B|---001001---|