Soda Stereo - Tele-K Chords

Main Riff
 
7 fr
         
         
         
         
         
1
3
4
2
1
1
         
         
         
         
         
X
2
1
X
3
         
         
         
         
         
X
1
4
4
4
X
         
         
         
         
         
X
1
3
3
3
1
4 fr
         
         
         
         
         
4
3
1
1
1
X
4 fr
         
         
         
         
         
3
2
1
1
1
4

9 fr
         
         
         
         
         
X
X
1
3
4
3
11 fr
         
         
         
         
         
X
4
3
1
2
1

Em

variations
6 fr
         
         
         
         
         
X
1
3
4
2
1
         
         
         
         
         
X
X
1
3
4
2
3 fr
         
         
         
         
         
X
4
2
1
X
X
6 fr
         
         
         
         
         
X
1
X
X
2
1
3 fr
         
         
         
         
         
X
4
3
1
2
X
11 fr
         
         
         
         
         
1
3
4
1
1
1

Am

variations
4 fr
         
         
         
         
         
1
3
4
1
1
1
6 fr
         
         
         
         
         
X
X
1
3
4
2
4 fr
         
         
         
         
         
X
X
3
1
1
1
         
         
         
         
         
4
2
1
X
X
X
8 fr
         
         
         
         
         
X
4
3
1
2
X
11 fr
         
         
         
         
         
X
1
3
4
2
1

F

variations
         
         
         
         
         
1
3
4
2
1
1
         
         
         
         
         
X
X
3
2
1
1
6 fr
         
         
         
         
         
X
4
3
1
2
1
4 fr
         
         
         
         
         
X
X
1
2
4
3
9 fr
         
         
         
         
         
X
1
3
3
3
1
11 fr
         
         
         
         
         
4
3
1
1
1
X

11 fr
         
         
         
         
         
3
2
1
1
1
4
         
         
         
         
         
2
3
1
4 fr
         
         
         
         
         
X
4
3
1
2
1
7 fr
         
         
         
         
         
X
1
4
4
4
X
2 fr
         
         
         
         
         
X
X
1
2
4
3
4 fr
         
         
         
         
         
4
3
1
2
1
7 fr
         
         
         
         
         
X
1
3
3
3
1

9 fr
         
         
         
         
         
4
3
1
1
1
X
9 fr
         
         
         
         
         
3
2
1
1
1
4
12 fr
         
         
         
         
         
1
3
4
2
1
1
4 fr
         
         
         
         
         
X
         
         
         
         
         
3
2
4
3 fr
         
         
         
         
         
1
3
4
2
1
1
         
         
         
         
         
2
1
3
4
3 fr
         
         
         
         
         
X
X
3
2
1
1
5 fr
         
         
         
         
         
X
X
1
3
4
3
7 fr
         
         
         
         
         
X
4
3
1
2
1

10 fr
         
         
         
         
         
X
1
2
3
4
X
10 fr
         
         
         
         
         
X
1
3
3
3
1
12 fr
         
         
         
         
         
3
2
1
1
1
4
         
         
         
         
         
X
3
2
1
3 fr
         
         
         
         
         
X
1
2
3
4
1
8 fr
         
         
         
         
         
1
3
4
2
1
1
3 fr
         
         
         
         
         
X
1
X
3
4
1
5 fr
         
         
         
         
         
3
2
1
1
1
4
10 fr
         
         
         
         
         
X
X
1
3
4
3

12 fr
         
         
         
         
         
X
4
3
1
2
1
3 fr
         
         
         
         
         
X
         
         
         
         
         
2
3
3 fr
         
         
         
         
         
X
X
2
4
1
7 fr
         
         
         
         
         
X
1
3
4
2
1
2 fr
         
         
         
         
         
X
X
1
3
4
2
3 fr
         
         
         
         
         
X
3
2
4
1
4 fr
         
         
         
         
         
X
4
3
1
2
X

12 fr
         
         
         
         
         
1
3
4
1
1
1
         
         
         
         
         
X
1
3
4
2
1
7 fr
         
         
         
         
         
1
3
4
1
1
1
         
         
         
         
         
X
1
3
4
2
X
7 fr
         
         
         
         
         
X
X
3
1
1
1
9 fr
         
         
         
         
         
X
X
1
3
4
2
11 fr
         
         
         
         
         
X
4
3
1
2
X
         
         
         
         
         
X
1
2
3
5 fr
         
         
         
         
         
1
3
4
2
1
1
2 fr
         
         
         
         
         
X
1
1
1
4
         
         
         
         
         
X
X
1
2
2 fr
         
         
         
         
         
3
2
1
1
1
4
7 fr
         
         
         
         
         
X
X
1
3
4
3

9 fr
         
         
         
         
         
X
4
3
1
2
1
12 fr
         
         
         
         
         
X
1
3
3
3
1
         
         
         
         
         
X
X
1
3
2
2 fr
         
         
         
         
         
X
4
3
1
2
1
5 fr
         
         
         
         
         
X
1
2
3
4
1
5 fr
         
         
         
         
         
X
1
4
4
4
X
7 fr
         
         
         
         
         
4
3
1
1
1
X
7 fr
         
         
         
         
         
3
2
1
1
1
4

10 fr
         
         
         
         
         
1
3
4
2
1
1
12 fr
         
         
         
         
         
X
X
1
3
4
3
5 fr
         
         
         
         
         
X
X
3 fr
         
         
         
         
         
1
4
2
3
1
1
5 fr
         
         
         
         
         
X
X
1
4
4
4
         
         
         
         
         
2
X
4
3
1
         
         
         
         
         
3
2
1
         
         
         
         
         
1
X
3
4
2
X
2 fr
         
         
         
         
         
X
X
4
3
2
1

7 fr
         
         
         
         
         
X
4
3
1
1
1
No chord
Standard guitar tuning:
E
A
D
G
B
E
No capo
   B   Em Am    F        E         G           C           F    Em
e|-7----6---4-----6---------7---------7-----------8-----------9---|--7----|
B|-7----7---4-----7---------9---------8-----------8-----------11--|--8----|
G|-8----8---4-----6---------9---------7-----------9-----------11--|--9----|
D|-9----8---6-----8---------9---------9-----------10----------11--|--9----|
A|-9----6---6-----9---------7---------10----------10----------9---|--7----|
E|-7----x---4-----x---------x---------x-----------8-----------x---|--x----|
dejalo ser dejalo sacudirse bien (no hay trampa en esto) ya vas a ver como tu cuerpo se abre (no esperes mas de mi)
  CORO:

Bm A Bm A

e|-------7-----------5-----------7------------5--------| B|-------7-----------5-----------7------------5--------| G|-------7-----------6-----------7------------6--------| D|-------9-----------7-----------9------------7--------| (repetir) A|-------9-----------7-----------9------------7--------| E|-------7-----------5-----------7------------5--------|
tele telekinesis moveras tus pies verso, coro
   C  F    Bm      D     C   F       Bm      D      C
e|-8--6------7-----10-----8---6---------7-----10------8-------------|
B|-8--7------7-----10-----8---7---------7-----10------8-------------|
G|-9--6------7-----11-----9---6---------7-----11------9-------------|
D|-10-8------9-----12-----10--8---------9-----12------10------------|
A|-10-9------9-----12-----10--9---------9-----12------10------------|
E|-8--x------7-----10-----8---x---------7-----10------8-------------|
no esperes mas de mi no esperes mas de mi
      F    Bm      D     C    F    G
e|----6------7-----10-----8----6-----7-------------|
B|----7------7-----10-----8----7-----8-------------|
G|----6------7-----11-----9--- 6-----7-------------|
D|----8------9-----12-----10---8-----9-------------|
A|----9------9-----12-----10---9-----10------------|
E|----x------7-----10-----8----x-----x-------------|
no esperes mas de mi de mi verso,coro... FINAL:
  Bm G7M A                Bm   G7M    A
e|-7---7---5----|    --------7-----7-----5-----------|
B|-7---7---5----|    --------7-----7-----5-----------|
G|-7---7---6----|(2) --------7-----7-----6-----------| (repetir
D|-9---9---7----|    --------9-----9-----7-----------|  varias veces)
A|-9---10--7----|    --------9-----10----7-----------|
E|-7---x---5----|    --------7-----x-----5-----------|
no esperes mas de mi
        Bm      A         G     A     B
e|-------7------5---------3-----5-----7----------------|
B|-------7------5---------3-----5-----7----------------|
G|-------7------6---------4-----6-----8----------------|
D|-------9------7---------5-----7-----9----------------|
A|-------9------7---------5-----7-----9----------------|
E|-------7------7---------3-----5-----7----------------|
no esperes no esperes mas de mi