Something For Kate - You Only Hide Chords

 
No chord
Standard guitar tuning:
E
A
D
G
B
E
No capo
INTRO/VERSE
e--3--3------------------------------------3--------|
b--3--3---3-------3------3---3---3--3--3---3--------|
G--0--0---2h4-----4------4---2h4-2--2--0---0--------|
D--0--0---0-------0------x---x-------------0--------|
A--x--x---x-------x------2---3-------------x--------|
E--3--3---3-------3------0---x-------------3--------|
CHORUS LEAD IN
e--3-----------------------------|
b--3---3-------------------------|
G--0---2-------------------------|
D--0---0-------------------------|
A--X---X-------------------------|
E--3---2-------------------------|
e-------------0---0-----0-----0-------|
b--3----------3---2-----3-----3-------|
G--4----------0---0-----0-----4-------|
D--2----------2---2-----2-----2-------|
A--2----------0---0-----3-----3-------|
E--0----------X---X-----X-----X-------|
AFTER CHORUS
play the verse once then go into
e--3-------2h3--2--0--0--0--0---|
b--3-------3----3--3--3--1--1---|
G--0-------0-------------0--0---|
D--0-------0--------------------|
A--x-------x--------------------|
E--3-------3--------------------|
e--------------------------------------------3--|
b--3----3------------------3---3---3--3--0---3--|
G--2h4--4---2h4--2--0h2-0--4---2h4-2--2--2---0--|
D--0----0---0----0--0---0--x---x-------------0--|
A--x----x------------------2---3-------------x--|
E--3----3------------------0---x-------------3--|