Spill Canvas - So Much Chords

 
No chord
Standard guitar tuning:
E
A
D
G
B
E
No capo
Chorus/ Verse (How does it feel to know you're everything i need...)
e |-0-0-0-0-0-0-0-0------------------------------------------------------|
B |-0-0-5-4-0-0-5-4------------------------------------------------------|
G |-9-8-6-6-1-2-X-X------------------------------------------------------|
D |-9-9-6-6-2-2-4-4------------------------------------------------------|
A |-7-6-4-4-0-0-2-2------------------------------------------------------|
E |-0-0-0-0--------------------------------------------------------------|

Chorus

oh i adore the way you carry yourself...)
e |---0-0---0-0---0-0---0-0-0---0-0-0-0-0--------------------------------|
B |-5-0-0-5-0-0-5-0-0-5-0-4-0-5-0-4-0-5-4--------------------------------|
G |-6-6-1-6-6-1-6-6-1-6-6-X-1-6-6-X-1-X-X--------------------------------|
D |-6-6-2-6-6-2-6-6-2-6-6-4-2-6-6-4-2-4-4--------------------------------|
A |-4-7-0-4-7-0-4-7-0-4-7-2-0-4-7-2-0-2-2--------------------------------|
E |---0-----0-----0-----0-------0----------------------------------------|
Chorus Outro/ Verse (How does it feel when we get locked into a stare...)
e |-0-0-0-0-0-0-0-0------------------------------------------------------|
B |-0-0-5-4-0-0-5-4------------------------------------------------------|
G |-9-8-6-6-1-2-X-X------------------------------------------------------|
D |-9-9-6-6-2-2-4-4------------------------------------------------------|
A |-7-6-4-4-0-0-2-2------------------------------------------------------|
E |-0-0-0-0--------------------------------------------------------------|

Chorus

oh i adore the way you carry yourself...)
e |-0-0-0-0-0-0-0-0-0-0-0-0-0--------------------------------------------|
B |-5-0-0-5-0-0-5-0-0-5-4-5-4--------------------------------------------|
G |-6-6-1-6-6-1-6-6-1-X-X-X-X--------------------------------------------|
D |-6-6-2-6-6-2-6-6-2-4-4-4-4--------------------------------------------|
A |-4-7-0-4-7-0-4-7-0-2-2-2-2--------------------------------------------|
E |---0-----0-----0------------------------------------------------------|

Bridge 1

Hold on to me girl...)
e |-2-0-0-0---0-2-0-0-0---0-0-0-----------------------------------------|
B |-0-5-5-5---0-0-5-5-5---0-5-4-----------------------------------------|
G |-1-6-X-6-1-1-1-6-X-6-1-1-X-X-----------------------------------------|
D |-2-6-4-6-2-2-2-6-4-6-2-2-4-4-----------------------------------------|
A |-2-4-2-4-2-0-2-4-2-4-2-0-2-2-----------------------------------------|
E |-0-------0---0-------0-----------------------------------------------|

Bridge 2

"i'm ready...", "are you ready...")
e |-0-0-0-0-0-0-0-0-0-0-0-0-0-0-0-0-------------------------------------|
B |-5-0-5-0-5-0-5-4-5-0-5-0-5-0-5-4-------------------------------------|
G |-6-1-6-1-6-1-X-X-6-1-6-1-6-1-X-X-------------------------------------|
D |-6-2-6-2-6-2-4-4-6-2-6-2-6-2-4-4-------------------------------------|
A |-4-0-4-0-4-0-2-2-4-0-4-0-4-0-2-2-------------------------------------|
E |---------------------------------------------------------------------|
Bridge 3 X4 (Pack your things we can leave today...)
e |-0-0-0-0-------------------------------------------------------------|
B |-0-0-5-4-------------------------------------------------------------|
G |-1-2-X-X-------------------------------------------------------------|
D |-2-2-4-4-------------------------------------------------------------|
A |-0-0-2-2-------------------------------------------------------------|
E |---------------------------------------------------------------------|
Bridge 4 X2 ("just you and i and the sweet unknown..."/ "if i had to choose...")
e |---0-0-0-0-0---------------------------------------------------------|
B |-5-0-5-0-5-4---------------------------------------------------------|
G |-6-1-6-1-X-X---------------------------------------------------------|
D |-6-2-6-2-4-4---------------------------------------------------------|
A |-4-0-4-0-2-2---------------------------------------------------------|
E |---------------------------------------------------------------------|

Bridge 5

In a goosebump infested embrace)
e |-2-0-0-0-0-2-0-0-0-0-------------------------------------------------|
B |-0-5-4-0-5-0-5-0-5-4-------------------------------------------------|
G |-1-6-X-1-X-1-6-1-X-X-------------------------------------------------|
D |-2-6-4-2-4-2-6-2-4-4-------------------------------------------------|
A |-2-4-2-0-2-2-4-0-2-2-------------------------------------------------|
E |-0---------0---------------------------------------------------------|

Outro

How does it feel)
e |-0-------------------------------------------------------------------|
B |-0-------------------------------------------------------------------|
G |-9-------------------------------------------------------------------|
D |-9-------------------------------------------------------------------|
A |-7-------------------------------------------------------------------|
E |-0-------------------------------------------------------------------|
Lyrics: How does it feel to know you're everything I need The butterflies in my stomach They could bring me to my knees How does it feel to know you're everything I want I've got a hard time saying this So I'll sing it in a song Oh I adore the way you carry yourself With the grace of a thousand angels overhead I love the way the galaxy starts to melt When we become one When we become one When we become one When we become one How does it feel How does it feel when we get locked into a stare? Please don't come looking for me When I get lost in the mess of your hair How do you feel when everything you've known Gets thrown aside Never fear, my dear, 'cause we have nothing left to hide Oh I adore the way you carry yourself With the grace of a thousand angels overhead I love the way the galaxy starts to melt Hold on to me girl If you feel your grip getting loose Just know that I'm right next to you Hold on to me girl If you feel your grip getting loose Just know that I won't let you down Well, I'm ready Well, I'm ready I am ready To run away with you Are you ready? Are you ready? Are you ready? To run away with me Pack your things we can leave today Pack your things we can leave today Say our goodbyes and get on the train Say goodbye Just you and I in the sweet unknown We can just call each other our home If I had to choose a way to die It'd be with you In a goosebump infested embrace With my overanxious hands cupping your face In a goosebump infested embrace With my overanxious hands cupping your cherub face How does it feel?