Spinal Tap - Stonehenge Chords

 
No chord
Standard guitar tuning:
E
A
D
G
B
E
No capo
Stonehenge, where the demons dwell
----------------------------------|
----------------------------------|
----------------------------------|
-----7----------------5-----3-----|
-----7----------------5-----3-----|
-----5----------------3-----1-----|
Where the banshees live and they do live well
---------------------------------------------|
---------------------------------------------|
----------5----------------------9-------7---|
----------5----------------------9-------7---|
----------3----------------------7-------5---|
---------------------------------------------|
Stonehenge, Where a man's a man
--------------------------------|
--------------------------------|
--------------------------------|
-----7---------------5------3---|
-----7---------------5------3---|
-----5---------------3------1---|
and the children dance to the pipes of pan
-------------------------------------------------------------|
-------------------------------------------------------------|
--------9---------------------5---------------7---9----5---9-|
--------9---------------------5---------------7---9----5---9-|
--------7---------------------3---------------5---7----3---7-|
-------------------------------------------------------------|
Same again for second verse. Then...
And you my love, won't you take my hand
------------------------------------------------------------|
------------------------------------------------------------|
----7---------------------------------------5---5-7-5-------|
----7----------------------7------------------9-------9-7-5-|
----5----------------------7--------------------------------|
---------------------------5--------------------------------|
We'll go back in time, to that mystic land
------------------------------------------------------------|
------------------------------------------------------------|
---------5-------------------------------------------9-9--7-|
---------5---------------------5------------------0--9-9--7-|
---------3---------------------5--------------0h2----7-7--5-|
-------------------------------3------------3---------------|
Where the dewdrops cry, and the cats meow
--------------------------------------------------------------|
--------------------------------------------------------------|
-(7)------------------------------------------5---5-7-5-------|
-(7)----------------------------7---------------9-------9-7-5-|
-(5)----------------------------7-----------------------------|
--------------------------------5-----------------------------|
I will take you there, I will show you how
-------------------------------------------|
-------------------------------------------|
-------------------------------------------|
-------3----------------------5------------|
-------3----------------------5------------|
-------1----------------------3------------|
There's also a section between the first and second verses and at the end that goes like this:
------------------------------------------------------------|
------------------------------------------------------------|
-----4-----2-----5-----6-----7-----8----------10--9---10--9-|
---4-----2-----5-----5-----7-----7------------10--9---10--9-|
-2-----0-----3-----4-----5-----6-----7--------8---7---8---7-|
------------------------------------------------------------|