Spring Awakening - Totally F..ked Chords

 

B

variations
         
         
         
         
         
X
1
2
3
4
1
6 fr
         
         
         
         
         
1
3
4
2
1
1
         
         
         
         
         
X
1
4
4
4
X
         
         
         
         
         
X
1
X
3
4
1
3 fr
         
         
         
         
         
3
2
1
1
1
4
8 fr
         
         
         
         
         
X
X
1
3
4
3

10 fr
         
         
         
         
         
X
4
3
1
2
1
         
         
         
         
         
1
3
4
2
1
1
5 fr
         
         
         
         
         
X
4
3
1
2
1
3 fr
         
         
         
         
         
X
X
1
2
4
3
         
         
         
         
         
X
X
3
2
1
1
8 fr
         
         
         
         
         
X
1
3
3
3
1
10 fr
         
         
         
         
         
4
3
1
1
1
X

10 fr
         
         
         
         
         
3
2
1
1
1
4

A

variations
4 fr
         
         
         
         
         
1
3
4
2
1
1
4 fr
         
         
         
         
         
X
X
3
2
1
1
6 fr
         
         
         
         
         
X
X
1
2
4
3
         
         
         
         
         
3
2
1
1
1
4
8 fr
         
         
         
         
         
X
4
3
1
2
1
11 fr
         
         
         
         
         
X
1
2
3
4
X

11 fr
         
         
         
         
         
X
1
3
3
3
1
No chord
    
Standard guitar tuning:
E
A
D
G
B
E
No capo

Intro

e|------------|
b|------------|
g|--333333333-|
D|--333333333-|x2
A|--111111111-|
E|------------|

Verse

   B    F       A    B
e|-1-----1----|--4-----1---|
b|-3-----1----|--4-----3---|
g|-3-----2----|--5-----3---|
D|-3-----3----|--6-----3---|
A|-1-----3----|--6-----1---|
E|-x-----1----|--4-----x---|
Monologue: But the thing that..."
      F            A
e|----x-------|----x-------|
b|----1-------|----4-------|
g|----2-------|----5-------|
D|----3-------|----6-------|x2
A|1-1-3-------|4-4-6-------|
E|----1-------|----4-------|

Verse

Chorus

   B    F       A    B
e|-1-----1----|--4-----1---|
b|-3-----1----|--4-----3---|
g|-3-----2----|--5-----3---|
D|-3-----3----|--6-----3---|
A|-1-----3----|--6-----1---|
E|-x-----1----|--4-----x---|
Blah Blah:

F A

e|----x-------|----x-------| b|----1-------|----4-------| g|----2-------|----5-------| D|----3-------|----6-------| A|1-1-3-------|4-4-6-------| E|----1-------|----4-------|

Intro

Verse

Chorus

Interlude

e|------------|
b|------------|
g|------------|
D|------------|
A|-6-6--------|
E|-------6~---|

Chorus

Blah Blah #2:

B F

e|------------|------------| b|------------|------------| g|3-3---------|------------| D|3-3---------|3-3---------| A|1-1---------|3-3---------| E|------------|1-1---------|
   A           B
e|------------|------------|
b|------------|------------|
g|------------|-3----------|
D|6-6---------|-3----------|
A|6-6---------|-1----------|
E|4-4---------|------------|
   B           F
e|------------|------------|
b|------------|------------|
g|-3----------|------------|
D|-3----------|-3----------|
A|-1----------|-3----------|
E|------------|-1----------|
   A           B
e|------------|------------|
b|------------|-3----------|
g|-6----------|-3----------|
D|-6----------|-1----------|
A|-4----------|------------|
E|------------|------------|
"Totally Fucked":

B

e|------------| b|------------| g|------------| D|-----8------| A|6-6--8------| E|-----6------|