Spunge - Make Me Happy Chords

 
No chord
Standard guitar tuning:
E
A
D
G
B
E
No capo
You make me happy           when you are sad
e-----------x---7---x---7---x---7---7--------4---5-|
B-----------x---9---x---9---x---9---9--------4---5-|
G-----------x---9---x---9---x---9---9--------5---6-|
D-----------x---9---x---9---x---9---9--------6---7-|
A-----------x---7---x---7---x---7---7--------6---7-|
E-----------x---7---x---7---x---7---7--------4---5-|
you make me smile when i know that you're mad
e-----------x---7---x---7---x---7---7--------4---5-|
B-----------x---9---x---9---x---9---9--------4---5-|
G-----------x---9---x---9---x---9---9--------5---6-|
D-----------x---9---x---9---x---9---9--------6---7-|
A-----------x---7---x---7---x---7---7--------6---7-|
E-----------x---7---x---7---x---7---7--------4---5-|
  i am more cheery          when you are weary
e-----------x---7---x---7---x---7---7--------4---5-|
B-----------x---9---x---9---x---9---9--------4---5-|
G-----------x---9---x---9---x---9---9--------5---6-|
D-----------x---9---x---9---x---9---9--------6---7-|
A-----------x---7---x---7---x---7---7--------6---7-|
E-----------x---7---x---7---x---7---7--------4---5-|
     'cos i have more fun when you're nowhere near me
e-----------x---7---x---7---x---7---7--------4---5-|
B-----------x---9---x---9---x---9---9--------4---5-|
G-----------x---9---x---9---x---9---9--------5---6-|
D-----------x---9---x---9---x---9---9--------6---7-|
A-----------x---7---x---7---x---7---7--------6---7-|
E-----------x---7---x---7---x---7---7--------4---5-|
   everybody else just get in line, what goes around comes around in time
e--x---7---x---7---x---7---x---7---x---4---x---4---x---5---x---5-|
B--x---9---x---9---x---9---x---9---x---4---x---4---x---5---x---5-|
G--x---9---x---9---x---9---x---9---x---5---x---5---x---6---x---6-|
D--x---9---x---9---x---9---x---9---x---6---x---6---x---7---x---7-|
A--x---7---x---7---x---7---x---7---x---6---x---6---x---7---x---7-|
E--x---7---x---7---x---7---x---7---x---4---x---4---x---5---x---5-|
na na na na na na na na na...