Staind - Black Rain Chords

Main Riff
 
No chord
Standard guitar tuning:
E
A
D
G
B
E
No capo
          G|--------0-----------
          D|------4---4--------
          A|----2--------2-------
          D|-0--------------------
phrase 2
          G|--------0----------
          D|------4---4--------
          A|----2--------2------
          D|-3-------------------
phrase 3
          B|--------0-------------
          G|-----2---2-----------   repeat twice
          D|----2-------2--------
          A|--0-------------------
          B|-------0----------
          G|-----0---0-------   repeat twice
          D|---2--------2----
          A|-3----------------