Steel Panther - Party All Day Chords

 
         
         
         
         
X
X
2
3
1
5 fr
         
         
         
         
X
1
3
4
2
1
10 fr
         
         
         
         
X
X
1
1
1
5 fr
         
         
         
         
X
X
3
2
1
2 fr
         
         
         
         
X
4
3
1
2
X
10 fr
         
         
         
         
1
3
4
1
1
1

12 fr
         
         
         
         
X
X
1
3
4
2
         
         
         
         
X
3
2
1
3 fr
         
         
         
         
X
1
2
3
4
1
8 fr
         
         
         
         
1
3
4
2
1
1
3 fr
         
         
         
         
X
1
X
3
4
1
5 fr
         
         
         
         
3
2
1
1
1
4
10 fr
         
         
         
         
X
X
1
3
4
3

12 fr
         
         
         
         
X
4
3
1
2
1
3 fr
         
         
         
         
X
         
         
         
         
X
2
3
1
5 fr
         
         
         
         
1
3
4
1
1
1
5 fr
         
         
         
         
X
X
1
1
1
8 fr
         
         
         
         
X
3
2
4
1
2 fr
         
         
         
         
X
1
4
4
4
7 fr
         
         
         
         
X
1
3
4
2

9 fr
         
         
         
         
X
4
3
1
2
X
12 fr
         
         
         
         
X
1
3
4
2
1
5 fr
         
         
         
         
X

B

variations
         
         
         
         
X
1
2
3
4
1
6 fr
         
         
         
         
1
3
4
2
1
1
         
         
         
         
X
1
4
4
4
X
         
         
         
         
X
1
X
3
4
1
3 fr
         
         
         
         
3
2
1
1
1
4
8 fr
         
         
         
         
X
X
1
3
4
3

10 fr
         
         
         
         
X
4
3
1
2
1
         
         
         
         
1
3
4
2
1
1
5 fr
         
         
         
         
X
4
3
1
2
1
3 fr
         
         
         
         
X
X
1
2
4
3
         
         
         
         
X
X
3
2
1
1
8 fr
         
         
         
         
X
1
3
3
3
1
10 fr
         
         
         
         
4
3
1
1
1
X

10 fr
         
         
         
         
3
2
1
1
1
4
         
         
         
         
3
2
4
3 fr
         
         
         
         
1
3
4
2
1
1
         
         
         
         
2
1
3
4
3 fr
         
         
         
         
X
X
3
2
1
1
5 fr
         
         
         
         
X
X
1
3
4
3
7 fr
         
         
         
         
X
4
3
1
2
1

10 fr
         
         
         
         
X
1
2
3
4
X
10 fr
         
         
         
         
X
1
3
3
3
1
12 fr
         
         
         
         
3
2
1
1
1
4
7 fr
         
         
         
         
1
3
4
2
1
1
         
         
         
         
X
2
1
X
3
         
         
         
         
X
1
4
4
4
X
         
         
         
         
X
1
3
3
3
1
4 fr
         
         
         
         
4
3
1
1
1
X
4 fr
         
         
         
         
3
2
1
1
1
4

9 fr
         
         
         
         
X
X
1
3
4
3
11 fr
         
         
         
         
X
4
3
1
2
1
No chord
Standard guitar tuning:
E
A
D
G
B
E
No capo
e|-------------------------------|------------------------------------------|
B|-------------------------------|------------------------------------------|
G|-------------------------------|------------------------------------------|
D|-------------------------------|------------------------------------------|
A|---------5--0--3----3--5--0-|--5--0--3----3--5--0-------------------|
E|-------------------------------|------------------------------------------|
When I was only three, Dmmy mom said to me, C"Don't go scrAmewing a skanky ho, Bor you're gonna get VD"

C Am

When I was seventeen, DmI boned a kooky bitch CA couple days laAmter, my balls swelled up, BAnd my crotch began toB itcFh B

C Dm

But thats when I totally knew, BWhat God wanted me to do, CWhoooaa! Whoa, ohhh, oh oh, hey, hey, hey! DmFuck allF nigAmht, Fand GpartGy all Amday! AmWhoa, AmohhhAm, oh ohF, heFy, heyAm, heGy! DmFuck allF nigAmht aFnd pGartyG...AllAm day

Am Am Am F F Am G

etc.

Solo

e|--------------------------------------------------------------------------|
B|----------------13pb15--13-13-11-11-10-10---------------------------------|
G--------10--12-------------------------------------------------------------|
D|--12----------------------------------------------------------------------|
A|--------------------------------------------------------------------------|
E|--------------------------------------------------------------------------|
e|------------------12b13---13r12--10---------------------------------------|
B|--10---11--13------------------------10--11--13pb15-13~~------------------|
G|--------------------------------------------------------------------------|
D|--------------------------------------------------------------------------|
A|--------------------------------------------------------------------------|
E|--------------------------------------------------------------------------|
e|--------------------------------------------------------------------------|
B|----------------13pb15--13-13-11-11-10-10---------------------------------|
G--------10--12-------------------------------------------------------------|
D|--12----------------------------------------------------------------------|
A|--------------------------------------------------------------------------|
E|--------------------------------------------------------------------------|
e|--------------------------------------------------------------------------|
B|----------------13pb15--13-10---11--10------------------------------------|
G------10--12---------------------------10- 12b14r12------------------------|
D|--12------------------------------------------------10~~~~----------------|
A|--------------------------------------------------------------------------|
E|--------------------------------------------------------------------------|
| / slide up | \ slide down | B hammer-on | p pull-off | ~ vibrato | + harmonic | x Mute note | B Bend | pb Pre-bend | br Bend release | pbr Pre-bend release | brb Bend release bend