Stephen Lynch - Drew Lynch Gary Foster Chords

 
No chord
Standard guitar tuning:
E
A
D
G
B
E
No capo
E:---------------------------------------------|
B:---------------------------------------------|
G----------------------------------------------|
D:-----2---2-----5---5---5-----2---2-----3---3-|
A:-----2---2-----5---5---5-----2---2-----3---3-|
E:---------------3---3---3---------------1---1-|
Repeat a couple of times then:
E:------------------------------------------------|
B:------------------------------------------------|
G:-----7---7---7---7---7-7---4---4---4---6---6--6-|
D:-----7---7---7---7---7-7---4---4---4---6---6--6-|
A:-----5---5---5---4---4-4---2---2---2---4---4--4-|
E:------------------------------------------------|