Stephen Lynch - Medieval Bush Chords

 
No chord
Standard guitar tuning:
E
A
D
G
B
E
No capo
e|------------------------------------------------------------------|
b|---1-1-1---1-1-1---0-0-0--0-0-0---0-0-0--0-0-0----1-1-1---1-1-1---|
g|---2-2-2---2-2-2---1-1-1--1-1-1---1-1-1--1-1-1----2-2-2---2-2-2---|
d|---2-2-2---2-2-2---2-2-2--2-2-2---2-2-2--2-2-2----2-2-2---2-2-2---|
a|-0--------0-------------------------------------0-------0---------|
E|-----------------0-------0-------0------0-------------------------|
e|---1-1-1---1-1-1----------------------------------------------0----|
b|---3-3-3---3-3-3----1-1-1----1-1-1---0-0-0---0-0-0----1-1-1---1----|
g|---2-2-2---2-2-2----2-2-2----2-2-2---1-1-1---1-1-1----2-2-2---2----|
d|-0-------0----------2-2-2----2-2-2---2-2-2---2-2-2----2-2-2---2----|
a|------------------0--------0------------------------0---------0----|
E|------------------------------------0-------0----------------------|