Stephen Lynch - Peanuts Chords

 
         
         
         
         
         
X
1
2
X
X
5 fr
         
         
         
         
         
1
3
4
X
X
X
7 fr
         
         
         
         
         
X
X
1
3
4
X
         
         
         
         
         
X
X
5 fr
         
         
         
         
         
X
X
5 fr
         
         
         
         
         
X
X
3 fr
         
         
         
         
         
X
1
3
4
X
X
8 fr
         
         
         
         
         
1
3
4
X
X
X
10 fr
         
         
         
         
         
X
X
1
3
4
X
3 fr
         
         
         
         
         
X
X
         
         
         
         
         
X
X
1
2
X
5 fr
         
         
         
         
         
X
1
3
4
X
X
10 fr
         
         
         
         
         
1
3
4
X
X
X
         
         
         
         
         
1
1
X
X
X
2 fr
         
         
         
         
         
X
X
1
3
4
X
7 fr
         
         
         
         
         
X
1
3
4
X
X
         
         
         
         
         
X
X
X
7 fr
         
         
         
         
         
X
X
         
         
         
         
         
1
3
4
X
X
X
3 fr
         
         
         
         
         
X
X
1
3
4
X
8 fr
         
         
         
         
         
X
1
3
4
X
X
         
         
         
         
         
X
X
         
         
         
         
         
3
2
4
3 fr
         
         
         
         
         
1
3
4
2
1
1
         
         
         
         
         
2
1
3
4
3 fr
         
         
         
         
         
X
X
3
2
1
1
5 fr
         
         
         
         
         
X
X
1
3
4
3
7 fr
         
         
         
         
         
X
4
3
1
2
1

10 fr
         
         
         
         
         
X
1
2
3
4
X
10 fr
         
         
         
         
         
X
1
3
3
3
1
12 fr
         
         
         
         
         
3
2
1
1
1
4
3 fr
         
         
         
         
         
1
3
4
X
X
X
5 fr
         
         
         
         
         
X
X
1
3
4
X
10 fr
         
         
         
         
         
X
1
3
4
X
X
         
         
         
         
         
X
3 fr
         
         
         
         
         
X
X
No chord
E guitar tuning
No capo
   +--------------------------PLEASE NOTE--------------------------+
+ This file is Jordan Lapping’s own work and represents his + + interpretation of the song. You may only use this file for + + private study, scholarship, or research. The contents may not +
   + be duplicated for use with other websites without written     +
   + permission. Thank you for understanding. Enjoy.               +
   +---------------------------------------------------------------+
 CHORDS USED:

A5 C5 D5 E5 F5 G G5

e]--x----x----x----x----x----3----x--| B]--x----x----x----x----x----0----x--| G]--x----5----7----x----x----0----x--| D]--7----5----7----2----3----0----5--| A]--7----3----5----2----3----2----5--| E]--5----3----5----0----1----3----3--|
TABULATURE LEGEND: (x) = muted strings (/) = slide (~) = let it ring N/C = No Chord

Intro

   C5 D5    A5   C5   G5
e|------------------------|
B|------------------------|
G|--5/7--7-------555------|
D|--5/7--7--777--555--55--| (x3)
A|--3/5--5--777--333--55--|
E|--3/5--5--555--333--33--|
   C5 D5    A5   C5   G5           F5        E5    G
e|------------------------------|------------------3-3--|
B|------------------------------|------------------0-0--|
G|--5/7--7-------555------------|------------------0-0--|
D|--5/7--7--777--555--55555555--|--33333333--2222--0-0--|
A|--3/5--5--777--333--55555555--|--33333333--2222--2-2--|
E|--3/5--5--555--333--33333333--|--11111111--0000--3-3--|

Verse 1

   C5 D5    A5   C5   G5
e|------------------------|
B|------------------------|
G|--5/7--7-------555------|
D|--5/7--7--777--555--55--| (x3)
A|--3/5--5--777--333--55--|
E|--3/5--5--555--333--33--|
   C5 D5    A5   C5   G5           F5        E5    G
e|------------------------------|------------------3-3--|
B|------------------------------|------------------0-0--|
G|--5/7--7-------555------------|------------------0-0--|
D|--5/7--7--777--555--55555555--|--33333333--2222--0-0--|
A|--3/5--5--777--333--55555555--|--33333333--2222--2-2--|
E|--3/5--5--555--333--33333333--|--11111111--0000--3-3--|
C5ChaD5rlie Brown had a A5big block head, wore a stC5ripey sweater every dG5ay (C5Ah-D5oh) Tried to kick that fA5ootball, but Lucy always pC5ulled the motherfucker aG5way (C5Ah-D5oh) Flew a kite just to tA5ry to relax, but he C5always put that shit in a tG5ree (C5Ah-D5oh) And the little rA5ed-headed girl wouldn't gC5ive no play to poor Chuck G5B... They wF5ere the baddest fuckers in the fE5unny papers... PGEANUTS!

Verse 2

   C5 D5    A5   C5   G5
e|------------------------|
B|------------------------|
G|--5/7--7-------555------|
D|--5/7--7--777--555--55--| (x3)
A|--3/5--5--777--333--55--|
E|--3/5--5--555--333--33--|
   C5 D5    A5   C5   G5           F5        E5    G
e|------------------------------|------------------3-3--|
B|------------------------------|------------------0-0--|
G|--5/7--7-------555------------|------------------0-0--|
D|--5/7--7--777--555--55555555--|--33333333--2222--0-0--|
A|--3/5--5--777--333--55555555--|--33333333--2222--2-2--|
E|--3/5--5--555--333--33333333--|--11111111--0000--3-3--|
C5OntD5o a sA5ecurity blanket, LC5inus Van Pelt would lG5atch (C5Ah-D5oh) Snuggled up to that bA5itch to keep warm while wC5aiting in a pumpkin pG5atch (C5Ah-D5oh) Had a stalker named SA5ally Brown and she C5always tried to get her sG5ome (C5Ah-D5oh) She loved the way he knew the mA5eaning of Christmas And the sC5exy way he sucked that thG5umb... Well, MF5arma Duke's a homo; Garfield E5is a pussy... PGEANUTS!

Chorus 1

   C5 D5     A5    C5    G5
e|-----------------------------|
B|-----------------------------|
G|--5/7--77--------5555--------|
D|--5/7--77--7777--5555--5555--|
A|--3/5--55--7777--3333--5555--|
E|--3/5--55--5555--3333--3333--|
    D5    A5    C5    G5
e|--------------------------|
B|--------------------------|
G|--7777--------5555--------|
D|--7777--7777--5555--5555--| (x2)
A|--5555--7777--3333--5555--|
E|--5555--5555--3333--3333--|
    D5    A5    C5    G5           F5        E5    G
e|------------------------------|------------------3-3--|
B|------------------------------|------------------0-0--|
G|--7777--------5555------------|------------------0-0--|
D|--7777--7777--5555--55555555--|--33333333--2222--0-0--|
A|--5555--7777--3333--55555555--|--33333333--2222--2-2--|
E|--5555--5555--3333--33333333--|--11111111--0000--3-3--|
C5Oh D5PeaA5nuts, cC5razy PG5eanuts D5A bunch of kA5ids trying C5to be frG5ee TD5ake my haA5nd and lC5et's dG5ance now D5Under ChA5arlie's shitty ChrC5istmas TrG5ee .F5..............E5............. PGEANUTS!

Verse 3

   C5 D5    A5   C5   G5
e|------------------------|
B|------------------------|
G|--5/7--7-------555------|
D|--5/7--7--777--555--55--| (x3)
A|--3/5--5--777--333--55--|
E|--3/5--5--555--333--33--|
   C5 D5    A5   C5   G5           F5        E5    G
e|------------------------------|------------------3-3--|
B|------------------------------|------------------0-0--|
G|--5/7--7-------555------------|------------------0-0--|
D|--5/7--7--777--555--55555555--|--33333333--2222--0-0--|
A|--3/5--5--777--333--55555555--|--33333333--2222--2-2--|
E|--3/5--5--555--333--33333333--|--11111111--0000--3-3--|
C5Oh,D5 Marcy A5was best friends with PC5atty, Patty PeppermG5int (C5Ah-D5oh) She would love to do thA5ings to that girl that ChC5arles M. Schulz can't pG5rint (C5Ah-D5oh) Pigpen was a dA5usty dude who cC5ouldn't keep his own ass clG5ean (C5Ah-D5oh) All the teachers said "A5Wah wah wha wha wha" - wC5hat does that shit mG5ean? Well, BF5ig Bird ain't the only yellow bE5ird in town... WGOODSTOCK!

Chorus 2

   C5 D5     A5    C5    G5
e|-----------------------------|
B|-----------------------------|
G|--5/7--77--------5555--------|
D|--5/7--77--7777--5555--5555--|
A|--3/5--55--7777--3333--5555--|
E|--3/5--55--5555--3333--3333--|
    D5    A5    C5    G5
e|--------------------------|
B|--------------------------|
G|--7777--------5555--------|
D|--7777--7777--5555--5555--| (x2)
A|--5555--7777--3333--5555--|
E|--5555--5555--3333--3333--|
    D5    A5    C5    G5           F5        E5    G
e|------------------------------|------------------3-3--|
B|------------------------------|------------------0-0--|
G|--7777--------5555------------|------------------0-0--|
D|--7777--7777--5555--55555555--|--33333333--2222--0-0--|
A|--5555--7777--3333--55555555--|--33333333--2222--2-2--|
E|--5555--5555--3333--33333333--|--11111111--0000--3-3--|
C5Oh D5PeaA5nuts, cC5razy PG5eanuts PD5oor Charlie BA5rown, you will nC5ever get lG5aid D5It's so hA5ard to gC5et pG5ussy WhD5en you're the bA5aldest kid in sC5econd grG5ade .F5..............E5............. PGEANUTS!

Verse 4

   C5 D5    A5   C5   G5
e|------------------------|
B|------------------------|
G|--5/7--7-------555------|
D|--5/7--7--777--555--55--| (x3)
A|--3/5--5--777--333--55--|
E|--3/5--5--555--333--33--|
   C5 D5    A5   C5   G5           F5        E5    G
e|------------------------------|------------------3-3--|
B|------------------------------|------------------0-0--|
G|--5/7--7-------555------------|------------------0-0--|
D|--5/7--7--777--555--55555555--|--33333333--2222--0-0--|
A|--3/5--5--777--333--55555555--|--33333333--2222--2-2--|
E|--3/5--5--555--333--33333333--|--11111111--0000--3-3--|
C5LucD5y was a pA5sychiatrist but her cC5omments always gave oG5ffence (C5Ah-D5oh) C5AndD5 the bitch couldn't A5make no money 'Cause she'd chC5arge a motherfucker five cG5ents (C5Ah-D5oh) You know the ladies lA5ove some Schroeder 'cause he pC5layed the '88s real gG5ood (C5Ah-D5oh) And Franklin was a rA5eal cool cat, but the oC5nly brother in that hG5ood... SF5ometimes you have to shout "Good grief" unE5to the heavens... GGOOD GRIEF!

Chorus 3

   C5 D5     A5    C5    G5
e|-----------------------------|
B|-----------------------------|
G|--5/7--77--------5555--------|
D|--5/7--77--7777--5555--5555--|
A|--3/5--55--7777--3333--5555--|
E|--3/5--55--5555--3333--3333--|
    D5    A5    C5    G5
e|--------------------------|
B|--------------------------|
G|--7777--------5555--------|
D|--7777--7777--5555--5555--| (x3)
A|--5555--7777--3333--5555--|
E|--5555--5555--3333--3333--|
C5Oh D5PeaA5nuts, cC5razy PG5eanuts SD5noopy fA5ly your plane and fC5ly it qG5uick D5You're the World A5War I FC5lying G5Ace D5Make Red BA5aron suck that BC5eagle dG5ick, yeah!

Bridge

    D5    A5    C5    G5
e|--------------------------|
B|--------------------------|
G|--7777--------5555--------|
D|--7777--7777--5555--5555--| (x4)
A|--5555--7777--3333--5555--|
E|--5555--5555--3333--3333--|
D5La na na, A5na na na, C5naa G5naaa D5La na na A5naa.......C5....G5..... D5La na na, A5na na na, C5naa G5naaa D5Laa na A5naa... oC5hh-ohh-G5oooohhh

Outro

    D5    A5    C5    G5
e|--------------------------|
B|--------------------------|
G|--7777--------5555--------|
D|--7777--7777--5555--5555--| (x3)
A|--5555--7777--3333--5555--|
E|--5555--5555--3333--3333--|
    D5    A5   C5  G5
e|-----------------------|
B|-----------------------|
G|--7777-------55--------|
D|--7777--777--55--5~~~--| A|--5555--777--33--5~~~--| E|--5555--555--33--3~~~--| D5Oh PA5eanuts, cC5razy PG5eanuts D5A bunch of kA5ids trying C5to be frG5ee TD5ake my haA5nd and lC5et's dG5ance now D5Under ChA5arlie's shitty ChrC5istmas TrG5ee... ×××××××××××××××××××××××××××××××××××××××××××××××××××××××××××××××××××××××××××××××× ××××××××××××××××××××××××××××××××××××××××××××××××××××××××××××××××××××××××××××××××