Stereophonics - Vegas Two Times Chords

Main Riff
Verse 1 + 2 Riff
 
No chord
    
Standard guitar tuning:
E
A
D
G
B
E
No capo
G|-3-3-3-----3-3-3-----x-x-x-x-------------
D|-2-2-2-----2-2-2-----x-x-x-x------------- REPEAT
A|-0-0-0-----0-0-0-----x-x-x-x---------3-5-
E|-------3p0-------3p0---------2-3-4-5-----
then theres some of the verse goes
e|-1-1-1-1-1-----
B|-0-0-0-0-0-----
G|-0-0-0-0-0-----several times
D|-0-0-0-0-0-----
A|---------------
E|-----------3p0-
hope this helps