Steve Miller - Jet Airliner Chords

 
         
         
         
         
         
1
3
4
2
1
1
5 fr
         
         
         
         
         
X
4
3
1
2
1
3 fr
         
         
         
         
         
X
X
1
2
4
3
         
         
         
         
         
X
X
3
2
1
1
8 fr
         
         
         
         
         
X
1
3
3
3
1
10 fr
         
         
         
         
         
4
3
1
1
1
X

10 fr
         
         
         
         
         
3
2
1
1
1
4
         
         
         
         
         
X
3
2
1
3 fr
         
         
         
         
         
X
1
2
3
4
1
8 fr
         
         
         
         
         
1
3
4
2
1
1
3 fr
         
         
         
         
         
X
1
X
3
4
1
5 fr
         
         
         
         
         
3
2
1
1
1
4
10 fr
         
         
         
         
         
X
X
1
3
4
3

12 fr
         
         
         
         
         
X
4
3
1
2
1
3 fr
         
         
         
         
         
X

B

variations
         
         
         
         
         
X
1
2
3
4
1
6 fr
         
         
         
         
         
1
3
4
2
1
1
         
         
         
         
         
X
1
4
4
4
X
         
         
         
         
         
X
1
X
3
4
1
3 fr
         
         
         
         
         
3
2
1
1
1
4
8 fr
         
         
         
         
         
X
X
1
3
4
3

10 fr
         
         
         
         
         
X
4
3
1
2
1
No chord
Standard guitar tuning:
E
A
D
G
B
E
Capo on 3 fret

Intro

4x's
  FF
E ------------------------       E ---------------------|
B ------------------------       B ---------------------|
G ------------------------   OR  G ---5-3-5--3----------|
D ---10-8-10--8-----------       D -------------5p3-----|
A --------------10p8------       A --3---------------6--|
E -8------------------11--       E ---------------------|

Verse

LeCavin' home, oFut on the rCoad IF've been down befCore Ridin' along in this big ol' jet plane I've been thFinkin' about my hCome But my love light seems so far away And I fBeel like it's aFll been dCone Somebody's tryin' to make me stay You know I've gBot to be Fmovin' Con

Chorus

COh, Oh Bbig ol' jFet airlCiner DBon't carry me tFoo far awCay Oh, Oh bBig ol' jFet airlCiner Cause it's hBere that I've gFot to sCtay 2xF'Fs
E ------------------------|
B ------------------------|
G ------------------------|
D ---10-8-10--8-----------|
A --------------10p8------|
E -8------------------11--|

Verse

GCoodbye to all my frFiends at hCome GoodbFye to people I've trCusted I've got to go out and make my way I might Fget rich you know I might get bCusted But my heart keeps calling me backwards As I gBet on the SFeven-O-SCeven Ridin' high I got tears in my eyes You know you Bgot to go through hFell Before you Cget to heaven

Chorus

BBig ol' jFet airlCiner DBon't carry me tFoo far awCay Oh, Oh bBig ol' jFet airlCiner Cause it's hBere that I've gFot to sCtay 2xF'Fs
E ------------------------|
B ------------------------|
G ------------------------|
D ---10-8-10--8-----------|
A --------------10p8------|
E -8------------------11--|

Verse

TCouchin' down in New EFngland tCown FFeel the heat comin' dCown I've got to keep on keepin' on You know the bFig wheel keeps on sCpinnin' around And I'm goin' with some hesitation You know that BI can sFurely sCee That I don't want to get caught up in any of that BFunky sFhit goin' dCown in the city

Chorus

BBig ol' jFet airlCiner DBon't carry me tFoo far awCay Oh, Oh bBig ol' jFet airlCiner Cause it's hBere that I've gFot to sCtay

Chorus

COh, Oh Bbig ol' jFet airlCiner DBon't carry me tFoo far awCay Oh, Oh bBig ol' jFet airlCiner Cause it's hBere that I've gFot to sCtay
  FF
1x
E ------------------------|
B ------------------------|
G ------------------------|
D ---10-8-10--8-----------|
A --------------10p8------|
E -8------------------11--|
YCeah, yeah yeah, yeah

Chorus

BBig ol' jFet airlCiner DBon't carry me tFoo far awCay Oh, Oh bBig ol' jFet airlCiner Cause it's hBere that I've gFot to sCtay

Chorus

COh, Oh Bbig ol' jFet airlCiner CBarry me Fto my hCome Oh, Oh bBig ol' jFet airlCiner Cause it's tBhere that FI belCong

Outro

  FF
3x's
E ------------------------|
B ------------------------|
G ------------------------|
D ---10-8-10--8-----------|
A --------------10p8------|
E -8------------------11--|
C ... FADE OUT Yeah, yeah yeah, yeah