Stone Sour - Say You'll Haunt Me Tab

You'll need Adobe Flash Player 10 or later to view
Say You'll Haunt Me Tab
Get it here
Sorry, an error has occurred.
Please try again later. If this error continues, please contact technical support.

×

Contribute to Say You'll Haunt Me Tab!

Songsterr tab archive is collaboratively built and maintained by your fellow music lovers. Anyone can submit error reports, contribute new tabs and make changes to existing ones. With your help, we can build a collection of accurate tabs for every imaginable song out there. Here is how you can contribute to Say You'll Haunt Me Tab:

  • Vote up (down) error reports that look useful (not useful) to you using arrow buttons to the left of error reports.
  • Flag inappropriate error reports for deletion by moderators if they are offtopic, abusive, low quality, duplicate, etc.
  • Submit new error reports.
  • Submit corrections to Say You'll Haunt Me Tab via Submit New Revision button.
 

Revisions

Have a better version of Say You'll Haunt Me Tab in Guitar Pro format? Care to fix the current tab? Submit your corrections for everyone to enjoy!
Submit New Revision
  • It has James full Solo and the background guitar in the refrain.
    Oct 22, 2012 by Sascha
  • 1|----------------------------------------------------------------------------|
    2|----19----------------------------------------------------------------------|
    3|-------19-18----------------------------------------------------------------|
    4|-------------19-16---14----14-16--------------------------------------------|
    5|------------------------17-------17-16-14-----------------------------------|
    6|----------------------------------------------------------------------------|

    1|---------------------------------------------------------------------------|
    2|---------------------------------------------------------------------------|
    3|---------------------------------------------------------------------------|
    4|--------------16-14----------------14--------------------------------------|
    5|----/14-16-17-------17-16-14-16-17-----17----------------------------------|
    May 28, 2012 by Connor
  • added bass
    Jun 01, 2011 by JosH
  • Initial revision
    Mar 18, 2011 by JosH