Streetlight Manifesto - Linoleum Chords

 
No chord
Standard guitar tuning:
E
A
D
G
B
E
No capo

Intro

Hit the E string once then play the chord a few times and do this twice.
e|----0--------|
B|----0--------|
G|----1--------|
D|----2--------|
A|----2--------|
E|--0-0--------|

Verses

e|-xx-0-xx-0-xx-0-xx-0-xx-4-xx-4-xx-4-xx-4-xx-4-xx-4-xx-7-xx-7-xx-5-xx-5--|
B|-xx-0-xx-0-xx-0-xx-0-xx-4-xx-4-xx-4-xx-4-xx-6-xx-6-xx-7-xx-7-xx-5-xx-5--|
G|-xx-1-xx-1-xx-1-xx-1-xx-5-xx-5-xx-5-xx-5-xx-6-xx-6-xx-8-xx-8-xx-6-xx-6--|
D|-xx-2-xx-2-xx-2-xx-2-xx-6-xx-6-xx-6-xx-6-xx-6-xx-6-xx-9-xx-9-xx-7-xx-7--|
A|-xx-2-xx-2-xx-2-xx-2-xx-6-xx-6-xx-6-xx-6-xx-4-xx-4-xx-9-xx-9-xx-7-xx-7--|
E|-xx-0-xx-0-xx-0-xx-0-xx-4-xx-4-xx-4-xx-4-xx-x-xx-x-xx-7-xx-7-xx-5-xx-5--|
e|-xx-7-xx-7--------------------------------------------------------------|
B|-xx-7-xx-7--------------------------------------------------------------|
G|-xx-8-xx-8--------------------------------------------------------------|
D|-xx-9-xx-9--------------------------------------------------------------|
A|-xx-9-xx-9--------------------------------------------------------------|
E|-xx-7-xx-7--------------------------------------------------------------|
Slow Verses When its strummed repeatedly not choked strummed he misses out two changes so the chord if just.
e|--0--4--4--5-------------------------------------------------------------|
B|--0--4--6--5-------------------------------------------------------------|
G|--1--5--6--6-------------------------------------------------------------|
D|--2--6--6--7-------------------------------------------------------------|
A|--2--6--4--7-------------------------------------------------------------|
E|--0--4--x--5-------------------------------------------------------------|
Any improvements please comment, and like I said before, please please please will tab out the acoustic solo. It would make my week.