Sublime - What Happened Chords

 
7 fr
         
         
         
         
         
1
3
4
2
1
1
         
         
         
         
         
X
2
1
X
3
         
         
         
         
         
X
1
4
4
4
X
         
         
         
         
         
X
1
3
3
3
1
4 fr
         
         
         
         
         
4
3
1
1
1
X
4 fr
         
         
         
         
         
3
2
1
1
1
4

9 fr
         
         
         
         
         
X
X
1
3
4
3
11 fr
         
         
         
         
         
X
4
3
1
2
1
         
         
         
         
         
X
1
2
3
5 fr
         
         
         
         
         
1
3
4
2
1
1
2 fr
         
         
         
         
         
X
1
1
1
4
         
         
         
         
         
X
X
1
2
2 fr
         
         
         
         
         
3
2
1
1
1
4
7 fr
         
         
         
         
         
X
X
1
3
4
3

9 fr
         
         
         
         
         
X
4
3
1
2
1
12 fr
         
         
         
         
         
X
1
3
3
3
1

A

variations
4 fr
         
         
         
         
         
1
3
4
2
1
1
4 fr
         
         
         
         
         
X
X
3
2
1
1
6 fr
         
         
         
         
         
X
X
1
2
4
3
         
         
         
         
         
3
2
1
1
1
4
8 fr
         
         
         
         
         
X
4
3
1
2
1
11 fr
         
         
         
         
         
X
1
2
3
4
X

11 fr
         
         
         
         
         
X
1
3
3
3
1
         
         
         
         
         
X
1
2
X
X
5 fr
         
         
         
         
         
1
3
4
X
X
X
7 fr
         
         
         
         
         
X
X
1
3
4
X
         
         
         
         
         
X
X
5 fr
         
         
         
         
         
X
X
5 fr
         
         
         
         
         
X
X
         
         
         
         
         
1
1
X
X
X
2 fr
         
         
         
         
         
X
X
1
3
4
X
7 fr
         
         
         
         
         
X
1
3
4
X
X
         
         
         
         
         
X
X
X
7 fr
         
         
         
         
         
X
X

F5

variations
         
         
         
         
         
1
3
4
X
X
X
4 fr
         
         
         
         
         
X
X
1
3
4
X
9 fr
         
         
         
         
         
X
1
3
4
X
X
         
         
         
         
         
X
1
3
4
X
X
7 fr
         
         
         
         
         
1
3
4
X
X
X
9 fr
         
         
         
         
         
X
X
1
3
4
X
         
         
         
         
         
X
X
3 fr
         
         
         
         
         
1
3
4
X
X
X
5 fr
         
         
         
         
         
X
X
1
3
4
X
10 fr
         
         
         
         
         
X
1
3
4
X
X
         
         
         
         
         
X
3 fr
         
         
         
         
         
X
X
No chord
Standard guitar tuning:
E
A
D
G
B
E
No capo
Chords:

B A A A5 E5 F5 B5

e--7----5----4------------------------| B--7----5----4------------------------| G--8----6----5---------9--------------| D--9----7----6----7----9----4----9----| A-----------------7----7----4----9----| E-----------------5---------2----7----|

Intro

Slide between A and B for the first four bars
e--5/7--7--7--7--7\5----|
B--5/7--7--7--7--7\5----|
G--6/8--8--8--8--8\6----|
D--7/9--9--9--9--9\7----|
A-----------------------|
E-----------------------|
then for the rest of the intro its just a B chord played with a ska rhythm (but do the A/B slide thing a few times) when he says "3, 4" its just the same but to a faster tempo

Verse

BWake up in the morniAng Bclock says half pastA one BI have no sunglassesA Bas I step into the sAun A5There's no recollectE5ion A5of the evil things IF5've done B5my head feels like IA5 must have had some fG5un
   B                            B  B  A  B
e---------------------------------------------|
B---------------------------------------------|
G---------------------------------------------|
D---------------------------------------------|
A--0--2--2--0--4--0--2-------0--2--2--0--2----|
E-----------------------2---------------------|
what happened? the solo is in B minor, i dont know it but i just improvise it here's a scale if you dont know it
e----------------------------------7--10-|
B---------------------------7--10--------|
G---------------------7--9---------------|
D---------------7--9---------------------|
A---------7--9---------------------------|
E--7--10---------------------------------|
BLast thing I remembAer BI was chillin' at aA party Bpinchin' girlie's aAsses BI was drinking reckAlessly A5I know that I did sE5omething A5Lord what could it F5be? B5woke up in the morning andA5 all my friends hate F5me
   B                            B  B  A  B
e---------------------------------------------|
B---------------------------------------------|
G---------------------------------------------|
D---------------------------------------------|
A--0--2--2--0--4--0--2-------0--2--2--0--2----|
E-----------------------2---------------------|
what happened? then theres another 2 guitar solos and a sax solo in the same key as the last one BWhat am I doing hAere? Bwho is this girl Ain my bed? Bwhat is this shitA on my face? Bmy god, what is tAhat awful smell? A5She may be an anE5gel A5she may be a queF5en she might B5be black, white, american, A5indian or jF5apanese
   B                            B  B  A  B
e---------------------------------------------|
B---------------------------------------------|
G---------------------------------------------|
D---------------------------------------------|
A--0--2--2--0--4--0--2-------0--2--2--0--2----|
E-----------------------2---------------------|
what happened? *another guitar solo* BThrew a bottle at the bAouncer Bdidn't think that he waAs cool Bpissed in someones drinAk Band threw a bike into aA pool A5drivin' down the side wE5alk A5like a drunken possesedF5 fool B5I broke every A5single traffic rF5ule
   B                            B  B  A  B
e---------------------------------------------|
B---------------------------------------------|
G---------------------------------------------|
D---------------------------------------------|
A--0--2--2--0--4--0--2-------0--2--2--0--2----|
E-----------------------2---------------------|
oh, what happened?
   B                            B  B  A  B
e---------------------------------------------|
B---------------------------------------------|
G---------------------------------------------|
D---------------------------------------------|
A--0--2--2--0--4--0--2-------0--2--2--0--2----|
E-----------------------2---------------------|
what happened?
   B                            B  B  A  B
e---------------------------------------------|
B---------------------------------------------|
G---------------------------------------------|
D---------------------------------------------|
A--0--2--2--0--4--0--2-------0--2--2--0--2----|
E-----------------------2---------------------|
Let's go!!! A5She may be an anE5gel A5she may be a queF5en she might Bbe black, white, american, Aindian or japaneF5se | / slide up | \ slide down | h hammer-on | p pull-off | ~ vibrato | + harmonic | x Mute note