Sugarfree - Burnout Chords

 
No chord
Standard guitar tuning:
E
A
D
G
B
E
No capo
Intro & Verse chords:
e-------|-------|
B---7---|---5---|
G---7---|---5---|
D---5---|---5---|
A-------|-------|
E-------|-------|

Chorus

e--3--|--3--|--3--|
B--3--|--3--|--3--|
G--0--|--0--|--0--|   (2x)
D--2--|--0--|--2--|
A--0--|--2--|--3--|
E--x--|--x--|--x--|
o kay tagal din kitang....
e--3--|--3--|
B--3--|--3--|
G--0--|--0--|   (2x)
D--0--|--2--|
A--2--|--3--|
E--3--|--x--|
wooohooo...woooohoooo...

Interlude

e--x--|--x--|
B--7--|--5--|
G--7--|--5--|   (2x)
D--x--|--x--|
A--x--|--x--|
E--x--|--x--|