Sum 41 - Does This Look Infected Chords

 
7 fr
         
         
         
         
         
1
3
4
2
1
1
         
         
         
         
         
X
2
1
X
3
         
         
         
         
         
X
1
4
4
4
X
         
         
         
         
         
X
1
3
3
3
1
4 fr
         
         
         
         
         
4
3
1
1
1
X
4 fr
         
         
         
         
         
3
2
1
1
1
4

9 fr
         
         
         
         
         
X
X
1
3
4
3
11 fr
         
         
         
         
         
X
4
3
1
2
1

Am

variations
4 fr
         
         
         
         
         
1
3
4
1
1
1
6 fr
         
         
         
         
         
X
X
1
3
4
2
4 fr
         
         
         
         
         
X
X
3
1
1
1
         
         
         
         
         
4
2
1
X
X
X
8 fr
         
         
         
         
         
X
4
3
1
2
X
11 fr
         
         
         
         
         
X
1
3
4
2
1
         
         
         
         
         
2
3
1
4 fr
         
         
         
         
         
X
4
3
1
2
1
7 fr
         
         
         
         
         
X
1
4
4
4
X
2 fr
         
         
         
         
         
X
X
1
2
4
3
4 fr
         
         
         
         
         
4
3
1
2
1
7 fr
         
         
         
         
         
X
1
3
3
3
1

9 fr
         
         
         
         
         
4
3
1
1
1
X
9 fr
         
         
         
         
         
3
2
1
1
1
4
12 fr
         
         
         
         
         
1
3
4
2
1
1
4 fr
         
         
         
         
         
X

F

variations
         
         
         
         
         
1
3
4
2
1
1
         
         
         
         
         
X
X
3
2
1
1
6 fr
         
         
         
         
         
X
4
3
1
2
1
4 fr
         
         
         
         
         
X
X
1
2
4
3
9 fr
         
         
         
         
         
X
1
3
3
3
1
11 fr
         
         
         
         
         
4
3
1
1
1
X

11 fr
         
         
         
         
         
3
2
1
1
1
4
         
         
         
         
         
X
3
2
1
3 fr
         
         
         
         
         
X
1
2
3
4
1
8 fr
         
         
         
         
         
1
3
4
2
1
1
3 fr
         
         
         
         
         
X
1
X
3
4
1
5 fr
         
         
         
         
         
3
2
1
1
1
4
10 fr
         
         
         
         
         
X
X
1
3
4
3

12 fr
         
         
         
         
         
X
4
3
1
2
1
3 fr
         
         
         
         
         
X
         
         
         
         
         
3
2
4
3 fr
         
         
         
         
         
1
3
4
2
1
1
         
         
         
         
         
2
1
3
4
3 fr
         
         
         
         
         
X
X
3
2
1
1
5 fr
         
         
         
         
         
X
X
1
3
4
3
7 fr
         
         
         
         
         
X
4
3
1
2
1

10 fr
         
         
         
         
         
X
1
2
3
4
X
10 fr
         
         
         
         
         
X
1
3
3
3
1
12 fr
         
         
         
         
         
3
2
1
1
1
4
         
         
         
         
         
2
3
3 fr
         
         
         
         
         
X
X
2
4
1
7 fr
         
         
         
         
         
X
1
3
4
2
1
2 fr
         
         
         
         
         
X
X
1
3
4
2
3 fr
         
         
         
         
         
X
3
2
4
1
4 fr
         
         
         
         
         
X
4
3
1
2
X

12 fr
         
         
         
         
         
1
3
4
1
1
1

D/F

variations
         
         
         
         
         
1
2
4
3
         
         
         
         
         
X
X
3
1
2
1
7 fr
         
         
         
         
         
X
3
1
1
1
4
2 fr
         
         
         
         
         
1
4
3
1
2
1
         
         
         
         
         
X
X
1
3
2
2 fr
         
         
         
         
         
X
4
3
1
2
1
5 fr
         
         
         
         
         
X
1
2
3
4
1
5 fr
         
         
         
         
         
X
1
4
4
4
X
7 fr
         
         
         
         
         
4
3
1
1
1
X
7 fr
         
         
         
         
         
3
2
1
1
1
4

10 fr
         
         
         
         
         
1
3
4
2
1
1
12 fr
         
         
         
         
         
X
X
1
3
4
3
5 fr
         
         
         
         
         
X
X
         
         
         
         
         
3
4
2
1
3 fr
         
         
         
         
         
1
1
2
3
4
1
5 fr
         
         
         
         
         
X
X
1
1
1
4
3 fr
         
         
         
         
         
1
X
X
3
4
X
         
         
         
         
         
X
X
3
3 fr
         
         
         
         
         
X
3
4
2
1
1
         
         
         
         
         
X
X
2
1
1
3 fr
         
         
         
         
         
X
3
4
2
1
X
7 fr
         
         
         
         
         
4
X
3
1
2
1
7 fr
         
         
         
         
         
X
X
         
         
         
         
         
X
2
3
1
5 fr
         
         
         
         
         
1
3
4
1
1
1
5 fr
         
         
         
         
         
X
X
1
1
1
8 fr
         
         
         
         
         
X
3
2
4
1
2 fr
         
         
         
         
         
X
1
4
4
4
7 fr
         
         
         
         
         
X
1
3
4
2

9 fr
         
         
         
         
         
X
4
3
1
2
X
12 fr
         
         
         
         
         
X
1
3
4
2
1
5 fr
         
         
         
         
         
X
         
         
         
         
         
1
3
4
2
1
1
5 fr
         
         
         
         
         
X
4
3
1
2
1
3 fr
         
         
         
         
         
X
X
1
2
4
3
         
         
         
         
         
X
X
3
2
1
1
8 fr
         
         
         
         
         
X
1
3
3
3
1
10 fr
         
         
         
         
         
4
3
1
1
1
X

10 fr
         
         
         
         
         
3
2
1
1
1
4

E

variations
3 fr
         
         
         
         
         
X
4
3
1
2
1
6 fr
         
         
         
         
         
X
1
2
3
4
1
         
         
         
         
         
X
X
1
2
4
3
3 fr
         
         
         
         
         
X
4
3
1
2
X
8 fr
         
         
         
         
         
4
3
1
1
1
X
8 fr
         
         
         
         
         
3
2
1
1
1
4

11 fr
         
         
         
         
         
1
3
4
2
1
1

B

variations
         
         
         
         
         
X
1
2
3
4
1
6 fr
         
         
         
         
         
1
3
4
2
1
1
         
         
         
         
         
X
1
4
4
4
X
         
         
         
         
         
X
1
X
3
4
1
3 fr
         
         
         
         
         
3
2
1
1
1
4
8 fr
         
         
         
         
         
X
X
1
3
4
3

10 fr
         
         
         
         
         
X
4
3
1
2
1
         
         
         
         
         
X
1
3
4
2
1
7 fr
         
         
         
         
         
1
3
4
1
1
1
         
         
         
         
         
X
1
3
4
2
X
7 fr
         
         
         
         
         
X
X
3
1
1
1
9 fr
         
         
         
         
         
X
X
1
3
4
2
11 fr
         
         
         
         
         
X
4
3
1
2
X
         
         
         
         
         
X
1
2
3
5 fr
         
         
         
         
         
1
3
4
2
1
1
2 fr
         
         
         
         
         
X
1
1
1
4
         
         
         
         
         
X
X
1
2
2 fr
         
         
         
         
         
3
2
1
1
1
4
7 fr
         
         
         
         
         
X
X
1
3
4
3

9 fr
         
         
         
         
         
X
4
3
1
2
1
12 fr
         
         
         
         
         
X
1
3
3
3
1

Fm

variations
         
         
         
         
         
1
3
4
1
1
1
4 fr
         
         
         
         
         
X
X
1
3
4
2
         
         
         
         
         
X
X
3
1
1
1
9 fr
         
         
         
         
         
X
1
3
4
2
1
6 fr
         
         
         
         
         
X
4
3
1
2
X

E/G

variations
4 fr
         
         
         
         
         
1
4
3
1
2
1
         
         
         
         
         
4
2
3
1
4 fr
         
         
         
         
         
1
X
X
2
4
3
4 fr
         
         
         
         
         
X
X
3
1
2
1

B/D

variations
4 fr
         
         
         
         
         
X
3
1
1
1
X
         
         
         
         
         
X
X
1
X
3
4 fr
         
         
         
         
         
X
3
1
1
1
4

Cm

variations
4 fr
         
         
         
         
         
X
1
3
4
2
1
9 fr
         
         
         
         
         
1
3
4
1
1
1
         
         
         
         
         
X
4
2
1
X
X
         
         
         
         
         
X
4
3
1
2
X
4 fr
         
         
         
         
         
X
1
X
X
2
1
11 fr
         
         
         
         
         
X
X
1
3
4
2

4 fr
         
         
         
         
         
X
X

C

variations
4 fr
         
         
         
         
         
X
1
2
3
4
1
         
         
         
         
         
X
4
3
1
2
1
4 fr
         
         
         
         
         
X
1
4
4
4
X
6 fr
         
         
         
         
         
4
3
1
1
1
X
6 fr
         
         
         
         
         
3
2
1
1
1
4
9 fr
         
         
         
         
         
1
3
4
2
1
1

11 fr
         
         
         
         
         
X
X
1
3
4
3

Em

variations
6 fr
         
         
         
         
         
X
1
3
4
2
1
         
         
         
         
         
X
X
1
3
4
2
3 fr
         
         
         
         
         
X
4
2
1
X
X
6 fr
         
         
         
         
         
X
1
X
X
2
1
3 fr
         
         
         
         
         
X
4
3
1
2
X
11 fr
         
         
         
         
         
1
3
4
1
1
1
         
         
         
         
         
X
X
2
3
1
5 fr
         
         
         
         
         
X
1
3
4
2
1
10 fr
         
         
         
         
         
X
X
1
1
1
5 fr
         
         
         
         
         
X
X
3
2
1
2 fr
         
         
         
         
         
X
4
3
1
2
X
10 fr
         
         
         
         
         
1
3
4
1
1
1

12 fr
         
         
         
         
         
X
X
1
3
4
2
3 fr
         
         
         
         
         
1
3
4
1
1
1
5 fr
         
         
         
         
         
X
X
1
3
4
2
3 fr
         
         
         
         
         
X
X
3
1
1
1
         
         
         
         
         
1
X
2
3
4
         
         
         
         
         
3
1
X
X
X
         
         
         
         
         
2
1
3
4

7 fr
         
         
         
         
         
X
4
3
1
2
X
10 fr
         
         
         
         
         
X
1
3
4
2
1
         
         
         
         
         
X
3
2
1
1
5 fr
         
         
         
         
         
1
4
3
1
2
1
5 fr
         
         
         
         
         
X
X
3
1
2
1
5 fr
         
         
         
         
         
1
X
X
2
4
3
         
         
         
         
         
3
2
1
         
         
         
         
         
X
X
2
1
5 fr
         
         
         
         
         
X
3
1
1
1
X
5 fr
         
         
         
         
         
X
3
1
1
1
4
3 fr
         
         
         
         
         
No chord
Standard guitar tuning:
E
A
D
G
B
E
No capo
Key: B Chords used: E - 022100 in Verses, 079900 in Chorus

Intro

Dave:

Am E B F

e|-------------|-------------|-------------|-----------------| B|-------------|-------------|-------------|-----------------| G|-------------|-------------|-------------|-----------------| D|--------1----|--------1----|--------1----|-----2-2-1-1-----| x3 A|----2-4----2-|----2-4----2-|-2--2-4----2-|-------------4-4-| E|-4-----------|-0-----------|-------------|-2-2-------------|
Deryck: G#m--E--B--F#-- x2

Verse 1

Am Everybody's got their Eproblems B Everybody says the Bsame thing to you Am It's just a matter how you Esolve them B And knowing how to change the Fthings you've been through Am I feel I've Ecome to realize B How fast life Fcan be compromised Am Step back to Esee what's going on B I can't beFlieve this happened to Amyou E B F This happened to Amyou E B F

Verse 2

Am It's just a problem that I'm Efaced with Am IB not the only one who Fhates to stand by Am Complications that are Efirst in this line B With all these pictures running Fthrough my mind Am Knowing endless E consequences B I feel so Fuseless in thisAm Get back step Eback and as for Bme I can't beFlieve

Chorus

Part of Amme won't agEree Cause I don't Bknow if it's for Fsure SuddenAmly suddenEly I don't Bfeel so inseFcure Post Chorus AnyAmmoreAm Am Am

Solo

Deryck: G#m--E--B--F# x4
Dave:
     S S S S  E   S  S  S S S S  E   S S
e|----------------------------------------|
A|---L-9-9-9--9------9----9-9-9--9--------|
D|---L-------11s--8-11b-L-------11s--8-6s-|
G|----------------------------------------|
B|----------------------------------------|
E|----------------------------------------|
   S  S  S  S  S S S S S S T  T  S T  T  S T  T  T  T
------------------------------------------------------|
------------------------------------------------------|
--11--L-11-11-11-9-8-6-L-6-8h-9p-8-6h-8p-6-4h-6p-4s-3-|
------------------------------------------------------|
------------------------------------------------------|
------------------------------------------------------|
                                     tr      tr      tr      tr
  E   E   E   S  S S S E   E   E     Q       Q       Q       Q
----------------------------------|----------------------------------|
----------------------------------|----------------------------------|
--8---9--11--13-11-L-8-8---9--11--|--3(4)----4(6)----6(8)----8(9)----|
--9--11--13--14-13-L-9-9--11--13--|----------------------------------|
----------------------------------|----------------------------------|
----------------------------------|----------------------------------|
   E    S  S   E   S  S   E   S  S   S   S  S  S
--------------------------------------------------|
---9----L-11--11---L-12--12---L-14--16------------|
--11b---L-13b-13b--L-14b-14b--L-16b-16b-16-13-18b-|
-----------------------------------------------L--|
--------------------------------------------------|
--------------------------------------------------|
  S  S    S    S    T   T  S  S  S   E     E   S  S  S  S
--------------------------------------------------------------------------------|
--------------------------------------------------------------------------------|
--L-18pb-18pb-18pb-18p-16----16-18b-18br--16---L-18-16-18br---------------------|
--------------------------18----------------------------------------------------|
--------------------------------------------------------------------------------|
--------------------------------------------------------------------------------|
S S S S E S S S S S S E S S
----------------------------------------------|
----19--L------------------19--L--------------|
--L--L--L--L-16--16-18br-L--L--L-L-16--16s-15-|
----------------------------------------------|
----------------------------------------------|
----------------------------------------------|
  S  S  S  S  S  S  S  S  S  S  S  S  S  S  E      W
-----------------------------------------------|--------------------|
-----------------------------------------------|--------------------|
--L-16-15--------------------------------------|--------------------|
----------16-18-16-----------------------------|--------------------|
-------------------16-18-16-14-16-14--L-16-14--|--14----------------|
-----------------------------------------------|--16----------------|
  B.            E   E      S. T E  E  EE  E  E  E
-----------------------|-----------------------------|
-----------------------|-----------------------------|
-----------------------|-----------------------------|
-----------------------|-----------------------------|
--L--------------------|-----------------------------|
--L------------16--14--|--16s-x----------------------|

Interlude

G#m(hold)---G#m-F#

Verse 3

Am Everybody's got their Eproblems B Everybody says the Fsame thing to you Am It's just a matter how you Esolve them B But what else are we supposed to Fdo

C

Outro

Am Why do Ethings that matter the Bmost Never Fend up being our Amchoice

An

Now that I Efind out it ain't so Bbad I don't Fthink I knew what I had

An

End on G#m 2.) Over My Head Key: G Chords used:

Intro

Dave: * means palm mute, until Verses

Em G D/F D

e|---------|---------|---------|---------| B|---------|-0---0---|---------|---------| G|-----0---|---------|-----2---|---------| D|-2-2---2-|---2---2-|-4-4---4-|-----4---| x6 A|---------|---------|---------|-5-5---5-| E|---------|---------|---------|---------|
x x x x x x x x x x x Deryck: * means Harmonics
e|-7*----|
B|----7*-|
G|-------|
D|-------|
A|-------|
E|-------|
     Em         G        D/F      D
e|---------|---------|---------|---------|
B|---------|---------|---------|---------|
G|---------|-4-4-4-4-|-2-2-2-2-|---------|
D|-2-2-2-2-|---------|---------|-4-4-4-4-| x4
A|---------|---------|---------|---------|
E|---------|---------|---------|---------|
Cone:

Em G D/F D

G|---------|---------|---------|----------| D|-2-2-2-2-|-5-5-5-5-|-4-4-4-4-|-0-0-0-0--| A|---------|---------|---------|----------| x4 E|---------|---------|---------|----------|

Verse 1

What Emhappened to you? G You've played the Dvictim for so Emlong now in this GgameD What I Emthought was trueG Is made of Dfiction and I'm Emfollowing the Gsame But DIf I

Refrain

Ctry to make sense Dof this mess I'm Emin I'm not sure where I should beCgin I'm falDling I'm falEmling Now I'm in
Dave: Refrains

C D Em

e|-----------------|-----------------|-----------------| B|-----------------|-----------------|---------0---2---| G|-----------------|-----------------|-----0-----------| D|-----2-----2---2-|-----4-----4---4-|-2-2---2---2---0-| A|-3-3---3-3---3---|-5-5---5-5---5---|-----------------| E|-----------------|-----------------|-----------------|
x2
         C                 D                    Em
e|-----------------|-----------------|-------------------------|
B|-----------------|-----------------|-------------------------|
G|-----------------|-----------------|-------------------------|
D|-----2-----2---2-|-----4-----4---4-|-2-2-2-2-2-2-2-2-2-2-2-2-|
A|-3-3---3-3---3---|-5-5---5-5---5---|-2-2-2-2-2-2-2-2-2-2-2-2-|
E|-----------------|-----------------|-0-0-0-0-0-0-0-0-0-0-0-0-|
Cone: Refrains

C D Em

G|-----------------|-----------------|----------------------------------| D|-----2-----2---2-|-----4-----4---4-|-----5----4-5---------5---4-5-4---| A|-3-3---3-3---3---|-5-5---5-5---5---|-7-7---7------7-7-7-7---7-------7-| E|-----------------|-----------------|----------------------------------|
         C                 D                    Em
G|-----------------|-----------------|-------------------------|
D|-----2-----2---2-|-----4-----4---4-|-------------------------|
A|-3-3---3-3---3---|-5-5---5-5---5---|-------------------------|
E|-----------------|-----------------|-0-0-0-0-0-0-0-0-0-0-0-0-|

Chorus

EmOver my head with Csomething I said ComGpletely misread I'm Dbetter off dead And Emnow I can see how C/Gfake you can be This hyG/Dpocricy's beDginning to get to me

Interlude

Deryck: Em-C-G-D x2
Dave:

Em C G D

e|-----|----|----|----| B|-----|----|----|----| G|-12--|-14-|-14-|-11-| D|--x--|--x-|--x-|--x-| x2 A|-10--|-12-|-10-|--9-| E|-----|----|----|----|
Cone:

Em C G D

G|------|------|------|---------| D|------|------|------|---------| A|----3-|-3----|----5-|-5-5-3-5-| x2 E|-0----|----3-|-3----|---------|

Verse 2

It's Emnone of my concern G Well look to Dme cause I Emdon't believe in GfameD I Emguess you never heard G I've met our Dmakers they don't Emeven know your Gname But Dif I

Refrain 2

Chad to say goodDbye to leave this Emhell I'd say my time has served me Cwell I'm falDling I'm falEmling Now I'm in

C

Post Chorus: Em This came Clong before G Those who D/Fsuffer more Em I'm too aC/Gwake for this to G/Dbe a Dnightmare Em What's with Cmy disgrace G I lost the D/Fhuman race Em No one plans C/Gfor it to G/DBlow up Din their face

Interlude

Deryck: Em--D/F#--G--Am x2
Dave: Until Bridge

Em D/F G Am

e|--------|--------|--------|-------------| B|--------|--------|--------|-------------| G|-12--11-|-14--12-|-16--12-|-11-12-14-16-| D|--x---x-|--x---x-|--x---x-|--x--x-x---x-| x2 A|-10---9-|-12--10-|-14--10-|--9-10-12-14-| E|--------|--------|--------|-------------|
Cone:

Em D/F G Am

G|---------|---------|---------|---------| D|---------|---------|---------|---------| A|---------|---------|---------|---------| x2 E|-0-0-0-0-|-2-2-2-2-|-3-3-3-3-|-5-3-2-3-|

Bridge

Em Who said itD/F was easyG to put back Amall these pieces Em Who said it D/Fwas so easy Gto put back all D/Fof these pieces Now I'm in

C

Outro

EmO--Cver Gmy Dhead EmbetCter Goff Ddead 3.) My Direction Key: F Chords used: Drop D only Chords used: for Standard EADGBe

Chorus

F PerEfection Bis my diFrection F EEven if Bthat's all I Fhad F It's Enot like I Bneed no corFrection F I just Eknow that Blife's not so Fbad

Verse 1

FPicture this Eeveryday Fkids that just can't Efind a way SFtuck in disarEray can't find Fhope for better Edays It's the FdegeneEra-Dtion of Fchildhood frusEtraDtion In the Flast 30 years Teenage Esuicide has incBreased 300% in FNorth America It is the Esecond major cause of death in BCanada

C

Interlude

F--Eb--Bb x4

Verse 2

FWhen will all my Eproblems disapBpear Am FI just going Ecrazy from the Bfear Oh Fmy oh my I'm Egoing far past the Bbrink The Fpressure's like a weight And I sEtill can't think sBtraight

C

Interlude

F--Eb-F-Eb-F-Bb x2

Verse 3

I've Fmet my destiEnations So Fwhat's left to comEplain about With Fall these aggraEvations FBuilding till the Eseams fall out I'm Crunning Bmy mouth Cdry With Cevery Btime I Clie CDon't tell Bme withCout a Bdoubt This Cdumbfound Bluck has Call run Bout CDon't tell Bme withCout a Bdoubt This Cdumbfound Bluck has Call run Bout

C

4.) Still Waiting Key: G Chords used:

Intro

Em So am IC still waiting G For this world Bmto stop hating Em Can't find aC good reason G Can't find hope Dto believe inD Post Chorus: Em--C--Em--C-Bm x2

Verse 1

Em Drop dead a BbulEmlet to Ammy Emhead Em Your words are like a Ggun in hand EmYou can't change the sBtate Emof the Amna-Emtion G We just need some Bmmotivation Em Since I have Bseen Emno conAmvicEmtion Em Just lies and Gmore contradiction Em So tell me Bwhat Emwould Amyou Emsay G I'd say its Bmup, to me

Chorus 1

Em So am IC still waiting G For this world Bmto stop hating Em Can't find aC good reason G Can't find hope Bmto believe in

C

Verse 2

Em Ignorance and BUn-EmdersAmtanEmding Em We're the first ones to Gjump in line Em Out of step for Bwhat Emwe beAmlieve Emin G But whos left? To sBmtart the pleading Em How far Bwill Emwe Amtake Emthis Em It's not hard to Gsee through the thickness Em So tell me what Bwould Emyou AmsayEm G I'd say its Bmup to me

C

Bridge

EmThis Ccan't Glast D/Ffor--Bmever EmTime Cwon't Gmake D/Fthings Bmbetter Em I feel Cso Da-Emlone Can't Chelp DmyEmself And Cno Done Emknows If this is Cworthless D Tell Emme C G Bm so

Interlude

Em--C--G--Bm-D, Em--C--G--Bm
Dave: Sweeping guitar Solo: Fast fingers are required to play this part
         Em                C                G

D

e|----------------|----------------|----------------|---------|---------| B|----------------|----------------|----------------|---------|---------| G|--------4-------|--------4-------|--------4-------|---------|---------| D|-----5----5-4-5-|-----5----5-4-5-|-----5----5-4-5-|-----4-5-|-7-5-4---| A|---7------------|-3-3------------|---5------------|-2-2-----|-------5-| E|-0--------------|----------------|-3--------------|---------|---------|

Verse 3

Em What haveC we done G We're in a war Bmthat can't be wonD Em This can'tC be real G I don't know Bmwhat to feel

C

Chorus 2

Em So am IC still waiting G For this world Bmto stop hating Em Can't find aC good reason G Can't find hope Bmto beEmlieve 5.) ANIC Key: A Chords used: Drop D only Chords used: For Standard EADGBe

Intro

Bm Fucking Shit

Verse

You Fmlook like ass You sAmell like shit So Dwhy are you such a Bmdick? You Fmwalk around like Ayou're the tits You Dalways make meBm sick E Bound for agonyC Bm You Elife's catastropheC Bm

Chorus

You're an FmassholeA D Bm You're an FmassholeA D Bm You're an FmassholeA D Bm You're an FmassholeA D Bm You make me sick 6.) No Brains Key: A Chords used: Drop D only Chords used: Standard EADGBe

Verse 1

Fm Can't step in my wayD A Head first and love Eand dismay Fm It's like beating the deadD A I can't stop going out Eon my head Fm Whatever this could be I neDver know A I never said it'd be the end Eall to be all

Refrain 1

I Dhate you today I Ecan't find a way Don't Fmdrag me Ddown Enow

Chorus 1

GoodFmbye I've Dhad enough frusEtration I Awon't get sE/Gtuck GoodFmbye This Ddead end situEation Is Ajust not E/G# F#m-- x4 worth my time

Verse 2

Fm It's no better todayD A I never thought it would end Eup this way Fm You've got something to sayD A Don't want to hear it if it gets Ein my way FmAll this confusion wondering is so overwhelmed FmAll Disillusion seems so clear now FmCan't find your conclusion to supporting evolution Not Fmall Things aren't what they appear

Refrain 2

So what's the Dpoint of this now I knoEw you too well We're runFmning backwaArds

Chorus 2

GoodFmbye I've Dhad enough frusEtration I Awon't get sE/Gtuck GoodFmbye This Ddead end situEation Is Ajust not E/Gworth my Dtime but waiting Eso frustrating FmI'm so sick ofA E/G DAll this tension Enot to mention FmI'm so sick ofA E/G D Can't take it E We won't make it Fm Just save yourE/Gself this trouble D Can't take it E quite for yourFmself Cause I'm just fine
Dave: on "Can't take It.."

E E E E E E E E E E E E E E E E

----------------------------------|----------------------------------| ----------------------------------|----------------------------------| --11--11--13--13--14--14--16--16--|--11--11--13--13--14--14--16--16--| ---x---x---x---x---x---x---x---x--|---x---x---x---x---x---x---x---x--| ---9---9--11--11--12--12--14--14--|---9---9--11--11--12--12--14--14--| ----------------------------------|----------------------------------|
   E   E   E   E   E   E   E E      E   E   E   E   E   EE  E
----------------------------------|--------------------------------|
----------------------------------|--------------------------------|
--18--18--16--16--14--14--13--13--|--14--14--13--13--11--11--9--9--|
---x---x---x---x---x---x---x---x--|---x---x---x---x---x---x--x--x--|
--16--16--14--14--12--12--11--11--|--12--12--11--11---9---9--7--7--|
----------------------------------|--------------------------------|
   E   E   E   E   E   E   E E      E   E   E   E   E   E E   E
----------------------------------|----------------------------------|
----------------------------------|----------------------------------|
--11--11--13--13--14--14--16--16--|--11--11--13--13--14--14--16--16--|
---x---x---x---x---x---x---x---x--|---x---x---x---x---x---x---x---x--|
---9---9--11--11--12--12--14--14--|---9---9--11--11--12--12--14--14--|
----------------------------------|----------------------------------|
   W
------|
------|
--18--|
---x--
--16--|
------|

Guitar solo

Deryck 1: F#m--D--E--A-E/G# x2
Deryck 2:
--------------|
--------------|
--11--------6-|
---x--------x-|
---9--------4-|
--------------|
  B        B            B         B            B       B
--------------------|----------------------|----------------------|
--------------------|----------------------|----------------------|
--9--------7--------|--13--------11--------|--14--------13--------|
--x--------x--------|---x---------x--------|---x---------x--------|
--7--------5--------|--11---------9--------|--12--------11--------|
--------------------|----------------------|----------------------|
   B        B           B        B            B       B
---------------------|--------------------|----------------------|
---------------------|--------------------|----------------------|
--11--------6--------|--9--------7--------|--13--------11--------|
---x--------x--------|--x--------x--------|---x---------x--------|
---9--------4--------|--7--------5--------|--11---------9--------|
---------------------|--------------------|----------------------|
   B         B
---------------|
---------------|
--14--------13-|
---x---------x-|
--12--------11-|
---------------|
Dave 1:
----------------24--12--|
------------------------|
------------------------|
------------------------|
------------------------|
------------------------|
   S  S S S  S  S S S  S  S S S  S  S S S
------------------------------------------|
--10-10-9-9-10-10-9-9-12-12-9-9-10-10-9-9-|
------------------------------------------|
------------------------------------------|
------------------------------------------|
------------------------------------------|
S S S S S S S S S S S S S S S S Q E E E E S S E
------------------------------------------|---------------------------------|
--12-12-9-9-10-10-9-9-12-12-9-9-10-10-9-9-|--12b----12--9--L--10--9h-10p-9--|
------------------------------------------|---------------------------------|
------------------------------------------|---------------------------------|
------------------------------------------|---------------------------------|
------------------------------------------|---------------------------------|
   E  E   E  E   Q      Q       E    E   E    E  S  S  S  S  S  S  S  S
-----------------------------|------------------------------------------|
-----------------------------|------------------------------------------|
--11--9--11--9--11br----9----|--9h--11p--9h--11--9-11-13-14-16-18-19-21-|
-----------------------------|------------------------------------------|
-----------------------------|------------------------------------------|
-----------------------------|------------------------------------------|
   S  S  S  S  S  S  S  S  S   S   S   S   S   S   E
--------------------------24h-26p-24h-26p-24h-26p-24--|
--------22-24-26-27-27-29-----------------------------|
--21-23-----------------------------------------------|
------------------------------------------------------|
------------------------------------------------------|
------------------------------------------------------|
Q E E E E S S E
  E   E   E   B
--26b----26--24---L--26--24h-26p-24--|--21--19--21--24--26b--------|
-------------------------------------|-----------------------------|
-------------------------------------|-----------------------------|
-------------------------------------|-----------------------------|
-------------------------------------|-----------------------------|
-------------------------------------|-----------------------------|
   W
--21-
-----
-----
-----
-----
-----
Dave 2:
                 Set for two octaves above for just the first note.
  B        Q     E                                                  E
-----------------------------------------------------------------------|
----------------12-------------------------------------------------12--|
-----------------------------------------------------------------------|
-----------------------------------------------------------------------|
-----------------------------------------------------------------------|
-----------------------------------------------------------------------|
   S  S S S  S  S S S  S  S S S  S  S S S
------------------------------------------|
--10-10-9-9-10-10-9-9-12-12-9-9-10-10-9-9-|
------------------------------------------|
------------------------------------------|
------------------------------------------|
------------------------------------------|
S S S S S S S S S S S S S S S S Q E E E E S S E
------------------------------------------|---------------------------------|
--12-12-9-9-10-10-9-9-12-12-9-9-10-10-9-9-|--12b----12--9--L--10--9h-10p-9--|
------------------------------------------|---------------------------------|
------------------------------------------|---------------------------------|
------------------------------------------|---------------------------------|
------------------------------------------|---------------------------------|
Steady gliss. tr
   E  E   E  E   Q      Q       E

E E B

-----------------------------|---------------------------------| -----------------------------|---------------------------------|
--11--9--11--9--11br----9----|--9h--11p--9h--11--9(11)---------|
-----------------------------|---------------------------------|
-----------------------------|---------------------------------|
-----------------------------|---------------------------------|
  w/ Digitech Whammy pedal.  Set for two octaves.
  Q.                                              E  S   S  S   S  S   S  E
-----------------------------------------------------------------------------|
-----------------------------------------------------------------------------|
--L-----------------------------------------------L--9h-11p-9h-11p-9h-11p-9--|
-----------------------------------------------------------------------------|
-----------------------------------------------------------------------------|
-----------------------------------------------------------------------------|
   Q      E  E  E   E  S   S  E

E E E B

---------------------------------|---------------------------| ---------------------------------|---------------------------|
--11b----11--9--L--11--9h-11p-9--|-------------9--11b--------|
---------------------------------|--11--9--11----------------|
---------------------------------|---------------------------|
---------------------------------|---------------------------|
   W                   Q    Q    H           W
--------------------|---------------------|-------------------|
--------------------|---------------------|-------------------|
--------------------|---------------------|-------------------|
--11----------------|--L------------------|-------------------|
--------------------|---------------------|-------------------|
--------------------|---------------------|-------------------|

Interlude

Deryck 1: F#m--D--A--E-- x2
Deryck 2: x6
  PM PM PM PM PM PM PM PM    PM PM PM PM PM PM PM PM

E E E E E E E E E E E E E E EE

--------------------------|--------------------------| --------------------------|--------------------------| --2--2--1--1--------------|--2--2--2--2--2--2--------| --------------4--4--2--2--|--4--4--4--4--4--4--2--2--| --------------------------|--------------------------| --------------------------|--------------------------|
  PM PM PM PM PM PM PM PM    PM PM PM PM PM PM PM PM

E E E E E E E E E E E E E E EE

--------------------------|--------------------------| --------------------------|--------------------------| --------------------------|--------------------------| --------------------------|--2--2--2--2--2--2--2--2--| --4--4--4--4--4--4--4--4--|--2--2--2--2--2--2--2--2--| --------------------------|--------------------------|
Dave 1: x6

E E E E B

-----------------------| -----------2--L--------| --------2--------------| -----4-----------------| --4--------------------| -----------------------|

Bridge

Fm You speak for Dall of us when A You can't be Eheard Fm I bet you Dhaven't listened A To not one Eword Fm You speak for Dall of us when A You can't be Eheard Fm I bet you Dhaven't listened A To not one Eword

Chorus 3

GoodFmbye I've Dhad enough frusEtration I Awon't get sE/Gtuck GoodFmbye This Ddead end situEation Is Ajust not E/Gworth my Dtime but waiting Eso frustrating FmI'm so sick of DAll this tension Enot to mention FmI'm so sick ofA E/G sick of Fmyou 7.) All Messed Up Key: B then E Chords used: E - 022100 or 079900

Intro

B--B/Eb--E--F#-- x2, B

Verse 1

Another day Awasted Eout of Btime I can't get out of this AAltered sEtate of Bmind I'm going overboard My Aconscience Emeets deBcline Into Reality I Aknow this Ecan't be Ffine

Chorus 1

Cause I'm Eall Amessed Bup Making Eprefect nonsense ADrowning in my Bdoubt too Awell Cause I'm Eall Amessed Bup Going Enowhere fast but Acircles in my Bmind So Ablind

Interlude

B--B/Eb--E--F#--

Verse 2

Who are these Avoices Ein my Bhead I can't go on like this ALiving Elike the Bdead I haven't slept so long AFeeling Esad I Bdread I'm talking to myself ForAgot what EI just Bsaid

Chorus 2

Cause I'm Eall Amessed Bup Making Eprefect nonsense ADrowning in my Bdoubt too Awell Cause I'm Eall Amessed Bup Going Enowhere fast but Acircles in my B A G#m-F#-A--G#m-F#-A--G#m-F#-F#--- mind So blind

Bridge

Well I Ehold my onB/Dly Cmenemy as Aclosely as a Bfriend And B/DI Esold my own B/Dre---Cmality to Afurther my deBscent Self-B/Ddes--Etruction taB/Dking Cmover it's so Aeasy to preBtend

B/D E B/D

Intro

-duction to this Cmnightmare can you A B--- seize may never end

Interlude

B-B--E--B-B-F#-B-B--E--B-B-F#-B- x4

Verse 3

Can anyone Ahelp me Edrag my Bheels I'm running overtime I Acan't hold Edown my Bmeals My mind is racing by SAtaring Eblankly Bfeels Like pulling out my teeth AWhile this Eengine Bwinds

C

Outro

B--B/Eb--E--F#-- x2, B 8.) Mr. Amsterdam Key: F Chords used:

C/F - 143xxx

Intro

Ebm(hold) x2, Ebm--Bbm--F#--Bbm--F#-C#/F-| Ebm--Bbm--F#--C# x2, Ebm------------------------|

Verse 1

I've Emsaid this beCfore No matter Bhow hard I Ftry I Emcan't help be Cbored While this Bworld passes Fby So this EmreveClatFion's Bgot no Cmeaning We Emlost it CallF in Bhopeless Cdreaming Am EmI just losing grip FPaint it black and Cjust forget me This Emworlds a sinking ship Fcoz our baggage Cis too heavy

Chorus 1

EmI can't stop beClieFving there's Bsomething to be Csaid EmWhat are we aCchiFeving with the Bbullshit that we're Cfed I know EmI'm not going to sCtayF Or Blive to see the Cday this Emworld comes to Cbe F So here's a BresigCnation from Emme a BresigCnation from Emme a BresigCnation from me

Interlude

Ebm--Bbm--F#--C# x2

Verse 2

I've Emsaid this beCfore No matter Bhow hard I Ftry I Emcan't help be Cbored While this Bworld passes Fby Em Don't Ctell me we're Bclosed to Fsomething Em That Cwe don't even BundersFtand Were Emprisoners to our homes FSome might say that were Call to blame The Emoutsides so unknown And Fno one here Cto complain

Chorus 2

EmI can't find the CansFwers to Bsave humaniCty EmI can't find the CangFer here's a BresigCnation from Emme a BresigCnation from Emme a BresigCnation from Emme B C# Ebm--E-E-Ebm--E-E-Ebm--E-E-Ebm-Ebm-Ebm-Ebm a resignation from me

Outro

Ebm--F#-C#/F--Ebm--Bb/D--Ebm--F#-C#/F---C#-C#--C#-Bb/D------| x2 Ebm--Bbm--F#--C# x2, Ebm--Ebm--Ebm--Ebm---------------------|E(hold) 9.) Thanks For Nothing Key: F Chords used: Drop D only Chords used: Standard EADGBe

Intro

Dm--Bb--F--C-- x4

Verse 1

I'll Dmnever take part in the Bgrowing population Or Fwaste my time with Cfurther education ForDmget what we know It's Bjust a big show FWhat they want to Ccontrol So Dmjaded, frusBtrated Its Fall so Ccomplicated DmFashion no Bpassion surFrounds me

Chorus 1

GmAll I know is DmI've heard this all beBfore Reality's a Fbore You ask me to beClieve in Bsomething fake Well DmI can't bring myself Bto Do what you want me Fto This is who we Care and BNothing's gonna DmchangeB F CNothing's gonna DmchangeB F C

Verse 2

I Dmcan't take part in the Bbusinessman illusion I'll Ftake my chance in the Creal world confusion DmDon't blame us BWho do we trust When Fthey're so disChonest? No Dmpatience this Bnation's obFsessed with Cexploitation DmLying, deBnying surFrounds me

Chorus 2

GmAll I know is DmI've heard this all beBfore Reality's a Fbore You ask me to beClieve in Bsomething fake Well DmI can't bring myself Bto Do what you want me Fto This is who we Care and Bb Dm C F-C/E-Dm--C--F-C/E Nothing's gonna change

Interlude

Dm--Bb--F--Em-- x2

Bridge

Dm Don't think you can ignore us F Don't tell me that Emwe're to blame Dm Don't pick our future Bfor us Or Fact like we're the same

Chorus 3

GmAll I know is DmI've heard this all beBfore Reality's a Fbore You ask me to beClieve in Bsomething fake Well DmI can't bring myself Bto Do what you want me Fto This is who we Care and BNothing's gonna DmchangeB F CNothing's gonna change

Outro

Dm B F

I've Cheard this all before

Dm B F

ReCality's a bore

Dm B F

It'll Cnever be the same

Dm B F

And Cnothings gonna Dmchange 10.) Hyper-Insomnia-Para-Condroid Key: F Chords used: Drop D only Gm - 555xxx or 5553xx Chords used: Standard EADGBe Am - x02210 or 577555

Intro

Dm--x15 Am-Gm Dm--Gm--Bb--Am-C x2

Verse 1

Dm Silence is Gmringing in my Bhead Am Stuck on Crepeat Dm Not much Gmlonger I'll be Bdead So Amjust forCget me Dm I'm loGmsing my Bmind And AmI don't Cthink you Dmcould save Cme this Gmtime

Chorus 1

And it goes DmOn and Con And I Bjust feel Fhelpless Dm How Clong will Bthis take Fto wear out DmOn and Con When will BI get Fthrough this Dm WelCcome to Bmy own Fdown and out

Verse 2

Dm I'm falling Gmdeeper in this Bhole Amto diCsaster Dm I'm gripping Gmwhat I thought conBtrol was Amfalling Cfaster Dm I'm loGmsing my Bmind And AmI don't Cthink you Dmcould save Cme this Gmtime

C

Bridge

Gm It's dragging Bon I'm wearing F/Athin I can't stop these Fwalls They keep caving in Gm It's gone too Bfar Where's my F/Amind Why can't BI stop C Dm--x4 fear this paranoia Dm It's a Amnever ending story Dm And it sAmtarts with me Dm It's a Amnever ending story Dm And it sAmtarts with Gmme

Chorus 2

And it goes DmOn and Con And I Bjust feel Fhelpless Dm How Clong will Bthis take Fto wear out DmOn and Con When will BI get Fthrough this Dm WelCcome to Bmy own Fdown and out Dm welCcome It's Bnever Cending Dm WelC/Ecome to Bmy own Fdown and out Dm welCcome I'm Bfalling Cfurther Dm WelC/Ecome to Bmy own Cdown and Dmout 11.) Billy Spleen Key: G then D Chords used: Drop D only Chords used: Standard EADGBe

Intro

Em-- x4

Verse 1

I'm Emheading for Dthe EmendD On Gtop of this bullshit I Ddon't want to hear it I Emfound my way Da-EmgainD It's Ghard to explain it I Dknow that I hate it Em ID Emdon't feelD Gthis could Dbe real I Emfind it so hardD I'm Emfalling apartD GSo much so much For Dwhat for what we said

Chorus

Bm No matter what I Gsay You turn your back aDway It's never going to break you Em It's never going to Gmake you fall

Verse 2

Em Fake reaDliEmty D I Gnever can make up The Dtime that you take up It's Emmy worst DeneEmmy D GIm on a mission To Dfeed my addiction Em SoD Emsick ofD Gthoughts so Dempty It's Emwell overflowedD I'm Embound to explodeD GSo much so much DFor what for what we said

C

Verse3

Em Somehow Between the lines it's clearer Locked down And chained up to the mirror Somehow Between the ines it's clearer Locked down It takes a part of me

Interlude

Em---D-G-G-D/F-----|D/F#
Em----------------------------|D-G-G-D/F#

C

12.) Hooch Key: G then D Chords used: Drop D only Chords used: Standard EADGBe

Intro

Em--D-Em--D-Em--D-Em--G--D-- x4

Verse 1

It's yourEm last chance to find yourself in consequence G It's so hard to Dfind a simple reason Em Maybe I'll find myself with evidence G Hate breeds with Dnothing to believe in Em Another day another day in paradise G If you only knew Dwouldn't it be nice Em Get away get away get away I'm aGbout to detoDnate

Chorus

Everything to EmproveD Nothing to EmloseD Just when Geverything has D/Ffallen to the EmgroundD Gonna knock it EmdownD Just beClieve me when I Dtell you it's alright

Verse 2

Em This time we're on our way to tragedy G Forever bored and Dour side from the in crowd Em I've come to grip confronting my reality G Numbstruck it's Dme against the world now Em For all you know for all you know it's not for real G Spare me the obDsession that you deal Em Get away get away get away I'm aGbout to detoDnate

C

Bridge

Em I should've know right from the start That you'd Gtake this trust and rip Dme apart Em pick slide up Could be a change of heart
pick slide up:
e|--------------------------------------------------------|
B|--------------------------------------------------------|
G|--------------------------------------------------------|
D|--------------------------------------------------------|
A|-5-6-7-8-9-10-11-12-13-14-15-16-17-18-19-20-------------|
E|-5-6-7-8-9-10-11-12-13-14-15-16-17-18-19-20-------------|

Guitar solo

Deryck: D/F#-G-A-D--Bm--G-- x4, D/F#-G-A-D(hold)
Dave:
   S   S  S S  T  T  T  S S S S S S S  S  S  S T
--19---L-17-L-15-17-15---------------------------|
-----------------------15-L-L-L-L-L-L--L---------|
--------------------------------------16-17-16-L-|
-------------------------------------------------|
-------------------------------------------------|
-------------------------------------------------|
S S S S T T S S E E E E S
-----------------------------------------|
--17--L-15-L-----------------------------|
-------------16-17-16--------------------|
----------------------19--L--17--L--L--L-|
-----------------------------------------|
-----------------------------------------|
   S S  S S  T  T  S  E  E  E  E   S  S
----------------------------------------|
----------------------------------------|
--14-L-16-L-17-16-14--------------------|
--16-L-17-L-19-17-16-16--L--L--L--------|
---------------------17--L--L--L--17-19-|
----------------------------------------|
   S  S  S  S  S  S  S  S  S  S  S  S  S S  S S
------------------------------------------------|
------------------------------------------------|
------------------------------------------------|
--17-17-------17-17-------17-19-21-19-17-L------|
--------17-19-------17-19------------------19-L-|
------------------------------------------------|
   S  S  S  S  S  S  S  S S S S S S S S S
------------------------------------------|
------------------------------------------|
------------------------------------------|
------------------------------------------|
--19-17-----------------------------------|
--------20-19-17--L-19--L-L-L-L-L-L-L-L-L-|
   S  S  S  S  S  S  S  S  S  S  S  S  S  S  S  S
--------------------------------------------------|
--------------------------------------------------|
--------------------------------------------------|
-----------------------17----17-19-17-19-20-19-17-|
-----------17----17-19----19----------------------|
--17-19-21----21----------------------------------|
   T  T  T  T  T  T  T  T  T  T  T  T  T  E   S S S S S S  T  T  T
-----------------------------------------19b--L-L-L-L-L-L-14-14-15-|
--21-20-19-18-17-16-15-16-17-18-19-20-21---------------------------|
-------------------------------------------------------------------|
-------------------------------------------------------------------|
-------------------------------------------------------------------|
-------------------------------------------------------------------|
   T  T  T  T  T  T  T  T  T  T  T  T  T  T  T  T  T  T  T  T  T  T  T  T  T  T
--15-14-14-17-17-14-14-15-15-14-14-17-17-14-14-15-15-14-14-17-17-14-14-15-15-14-|
--------------------------------------------------------------------------------|
--------------------------------------------------------------------------------|
--------------------------------------------------------------------------------|
--------------------------------------------------------------------------------|
--------------------------------------------------------------------------------|
   S S  S S  S S  S S S S S S S S S S
--------------------------------------|
--------------------------------------|
--16-L-14-L-12-L-11-L-L-L-L-L-L-L-L-L-|
--------------------------------------|
--14-L-12-L-10-L--9-L-L-L-L-L-L-L-L-L-|
--------------------------------------|

Interlude

beat switches from 4/4 to 3/4 G--D/F#-D

Outro

Bm I'll fall into DyouG but don't believe that this D/Fis Dreal
Dave:
e|---------9--------------9------|
B|-10---10---10---10---10---10---|
G|----7---------7----7---------7-| x4
D|-------------------------------|
A|-------------------------------|
D|-------------------------------|