Sum 41 - Grab the Devil by the Horns and F..k Him Up the Ass Chords

Main Riff
Main Riff
Main Riff
Main Riff
 
         
         
         
         
3
2
4
3 fr
         
         
         
         
1
3
4
2
1
1
         
         
         
         
2
1
3
4
3 fr
         
         
         
         
X
X
3
2
1
1
5 fr
         
         
         
         
X
X
1
3
4
3
7 fr
         
         
         
         
X
4
3
1
2
1

10 fr
         
         
         
         
X
1
2
3
4
X
10 fr
         
         
         
         
X
1
3
3
3
1
12 fr
         
         
         
         
3
2
1
1
1
4
         
         
         
         
2
3
3 fr
         
         
         
         
X
X
2
4
1
7 fr
         
         
         
         
X
1
3
4
2
1
2 fr
         
         
         
         
X
X
1
3
4
2
3 fr
         
         
         
         
X
3
2
4
1
4 fr
         
         
         
         
X
4
3
1
2
X

12 fr
         
         
         
         
1
3
4
1
1
1

F

variations
         
         
         
         
1
3
4
2
1
1
         
         
         
         
X
X
3
2
1
1
6 fr
         
         
         
         
X
4
3
1
2
1
4 fr
         
         
         
         
X
X
1
2
4
3
9 fr
         
         
         
         
X
1
3
3
3
1
11 fr
         
         
         
         
4
3
1
1
1
X

11 fr
         
         
         
         
3
2
1
1
1
4
7 fr
         
         
         
         
1
3
4
2
1
1
         
         
         
         
X
2
1
X
3
         
         
         
         
X
1
4
4
4
X
         
         
         
         
X
1
3
3
3
1
4 fr
         
         
         
         
4
3
1
1
1
X
4 fr
         
         
         
         
3
2
1
1
1
4

9 fr
         
         
         
         
X
X
1
3
4
3
11 fr
         
         
         
         
X
4
3
1
2
1
         
         
         
         
X
X
1
3
2
2 fr
         
         
         
         
X
4
3
1
2
1
5 fr
         
         
         
         
X
1
2
3
4
1
5 fr
         
         
         
         
X
1
4
4
4
X
7 fr
         
         
         
         
4
3
1
1
1
X
7 fr
         
         
         
         
3
2
1
1
1
4

10 fr
         
         
         
         
1
3
4
2
1
1
12 fr
         
         
         
         
X
X
1
3
4
3
5 fr
         
         
         
         
X
X
         
         
         
         
X
3
2
1
3 fr
         
         
         
         
X
1
2
3
4
1
8 fr
         
         
         
         
1
3
4
2
1
1
3 fr
         
         
         
         
X
1
X
3
4
1
5 fr
         
         
         
         
3
2
1
1
1
4
10 fr
         
         
         
         
X
X
1
3
4
3

12 fr
         
         
         
         
X
4
3
1
2
1
3 fr
         
         
         
         
X
No chord
Standard guitar tuning:
E
A
D
G
B
E
No capo
Key: G Chords used:
Deryck:

Em G F Em B G

e|-0-2-3-5-3-2-0---|-3-|-2-|-0-|---|-0-|-2-| B|---------------3-|---|---|---|-4-|---|---| G|-----------------|---|---|---|---|---|---| D|-----------------|---|---|---|---|---|---| A|-----------------|---|---|---|---|---|---| E|-----------------|---|---|---|---|---|---|
         x7

Em D C

e|---------------------------|---------------------------|---------------------------| B|---------------------------|---------------------------|---------------------------| G|-9-------------------------|-7-------------------------|-5-------------------------| D|-9-------------------------|-7-------------------------|-5-------------------------| A|-7--7-7-7--7-7-7--7-7-7--7-|-5--5-5-5--5-5-5--5-5-5--5-|-3--3-3-3--3-3-3--3-3-3--3-| E|---------------------------|---------------------------|---------------------------|
   G   F  Em  B   F  G
e|-3-|-2-|-0-|---|-0-|-2-|
B|---|---|---|-4-|---|---|
G|---|---|---|---|---|---|
D|---|---|---|---|---|---|
A|---|---|---|---|---|---|
E|---|---|---|---|---|---|
              Em                           D                           C
e|---------------------------|---------------------------|---------------------------|
B|---------------------------|---------------------------|---------------------------|
G|-9-------------------------|-7-------------------------|-5-------------------------|
D|-9-------------------------|-7-------------------------|-5-------------------------|
A|-7--7-7-7--7-7-7--7-7-7--7-|-5--5-5-5--5-5-5--5-5-5--5-|-3--3-3-3--3-3-3--3-3-3--3-|
E|---------------------------|---------------------------|---------------------------|
   G   F  Em  B   F  G
e|-3-|-2-|-0-|---|-0-|-2-|
B|---|---|---|-4-|---|---|
G|---|---|---|---|---|---|
D|---|---|---|---|---|---|
A|---|---|---|---|---|---|
E|---|---|---|---|---|---|
         Em                 D                 C
e|-0-2-3-5-3-2-0---|-0-2-3-5-3-2-0---|-0-2-3-5-3-2-0---|
B|---------------3-|---------------3-|---------------3-|
G|-----------------|-----------------|-----------------|
D|-----------------|-----------------|-----------------|
A|-----------------|-----------------|-----------------|
E|-----------------|-----------------|-----------------|
   G   F  Em  B   F  G
e|-3-|-2-|-0-|---|-0-|-2-|
B|---|---|---|-4-|---|---|
G|---|---|---|---|---|---|
D|---|---|---|---|---|---|
A|---|---|---|---|---|---|
E|---|---|---|---|---|---|
         Em                 D                 C
e|-0-2-3-5-3-2-0---|-0-2-3-5-3-2-0---|-0-2-3-5-3-2-0---|
B|---------------3-|---------------3-|---------------3-|
G|-----------------|-----------------|-----------------|
D|-----------------|-----------------|-----------------|
A|-----------------|-----------------|-----------------|
E|-----------------|-----------------|-----------------|
   G   F  Em  B   F  G G   F  B   G
e|-3-|-2-|-0-|---|-0-|-2-|---|------|---|---|---|---|
B|---|---|---|-4-|---|---|---|------|---|---|---|---|
G|---|---|---|---|---|---|---|------|---|---|---|---|
D|---|---|---|---|---|---|-2-|------|---|---|-4-|---|
A|---|---|---|---|---|---|-2-|-4/16-|-5-|-4-|-2-|-5-|
E|---|---|---|---|---|---|-0-|------|-3-|-2-|---|-3-|
      Em       G   F  B   G     G   F  B   G
e|-----------|---|---|---|---|-----------|---|---|---|---|
B|-----------|---|---|---|---|-----------|---|---|---|---|
G|-----------|---|---|-4-|---|-----------|---|---|---|---|
D|---------2-|---|---|-2-|---|---------2-|---|---|-4-|---|
A|---------2-|-5-|-4-|---|-5-|---------2-|-5-|-4-|-2-|-5-|
E|-0-0-0-0-0-|-3-|-2-|---|-3-|-0-0-0-0-0-|-3-|-2-|---|-3-|
x6 x6
                  Em                    D            Em
e|------------------------------------|---|----------------------|
B|------------------------------------|---|----------------------|
G|------------------------------------|---|----------------------|
D|------------------------------------|---|----------------------|
A|---------7----------7----------7--7-|-5-|---------7----------7-|
E|-0-0-0-0----0-0-0-0----0-0-0-0------|---|-0-0-0-0----0-0-0-0---|
   G   F  B   G
e|---|---|---|---|
B|---|---|---|---|
G|---|---|---|---|
D|---|---|-4-|---|
A|-5-|-4-|-2-|-5-|
E|-3-|-2-|---|-3-|
                    Em                      D           Em
e|----------------------------------------|---|----------------------|
B|----------------------------------------|---|----------------------|
G|----------------------------------------|---|----------------------|
D|----------------------------------------|---|----------------------|
A|---------7----------7----------7--7h9p7-|-5-|---------7----------7-|
E|-0-0-0-0----0-0-0-0----0-0-0-0----------|---|-0-0-0-0----0-0-0-0---|
   G   F  B   G   Em
e|---|---|---|---|---|
B|---|---|---|---|---|
G|---|---|---|---|---|
D|---|---|-4-|---|-2-|
A|-5-|-4-|-2-|-5-|-2-|
E|-3-|-2-|---|-3-|-0-|
Dave:
         Em          G   F  Em  B

G

e|-7-5-7-8-7-5-----|-7-|-5-|---|---|---|-5-| B|-------------8-7-|---|---|-8-|-7-|-8-|---| G|-----------------|---|---|---|---|---|---| D|-----------------|---|---|---|---|---|---| A|-----------------|---|---|---|---|---|---| E|-----------------|---|---|---|---|---|---|
x3
              Em                           D                           C
e|---------------------------|---------------------------|---------------------------|
B|---------------------------|---------------------------|---------------------------|
G|-9-------------------------|-7-------------------------|-5-------------------------|
D|-9-------------------------|-7-------------------------|-5-------------------------|
A|-7--7-7-7--7-7-7--7-7-7--7-|-5--5-5-5--5-5-5--5-5-5--5-|-3--3-3-3--3-3-3--3-3-3--3-|
E|---------------------------|---------------------------|---------------------------|
   G   F  Em  B   F  G
e|-7-|-5-|---|---|---|-5-|
B|---|---|-8-|-7-|-8-|---|
G|---|---|---|---|---|---|
D|---|---|---|---|---|---|
A|---|---|---|---|---|---|
E|---|---|---|---|---|---|
              Em                           D                           C
e|---------------------------|---------------------------|---------------------------|
B|---------------------------|---------------------------|---------------------------|
G|---------------------------|---------------------------|---------------------------|
D|-5--5-5-5--5-5-5--5-5-5--5-|-4--4-4-4--4-4-4--4-4-4--4-|-2--2-2-2--2-2-2--2-2-2--2-|
A|---------------------------|---------------------------|---------------------------|
E|---------------------------|---------------------------|---------------------------|
   G   F  Em  B   F  G
e|-7-|-5-|---|---|---|-5-|
B|---|---|-8-|-7-|-8-|---|
G|---|---|---|---|---|---|
D|---|---|---|---|---|---|
A|---|---|---|---|---|---|
E|---|---|---|---|---|---|
         Em                 D                 C
e|-7-5-7-8-7-5-----|-7-5-7-8-7-5-----|-7-5-7-8-7-5-----|
B|-------------8-7-|-------------8-7-|-------------8-7-|
G|-----------------|-----------------|-----------------|
D|-----------------|-----------------|-----------------|
A|-----------------|-----------------|-----------------|
E|-----------------|-----------------|-----------------|
   G   F  Em  B   F  G
e|-7-|-5-|---|---|---|-5-|
B|---|---|-8-|-7-|-8-|---|
G|---|---|---|---|---|---|
D|---|---|---|---|---|---|
A|---|---|---|---|---|---|
E|---|---|---|---|---|---|
         Em                 D                 C
e|-7-5-7-8-7-5-----|-7-5-7-8-7-5-----|-7-5-7-8-7-5-----|
B|-------------8-7-|-------------8-7-|-------------8-7-|
G|-----------------|-----------------|-----------------|
D|-----------------|-----------------|-----------------|
A|-----------------|-----------------|-----------------|
E|-----------------|-----------------|-----------------|
   G   F  Em  B   F  G   Em
e|-7-|-5-|---|---|---|-5-|---|
B|---|---|-8-|-7-|-8-|---|---|
G|---|---|---|---|---|---|---|
D|---|---|---|---|---|---|-2-|
A|---|---|---|---|---|---|-2-|
E|---|---|---|---|---|---|-0-|
      Em       G   F  B   G     G   F  B   G
e|-----------|---|---|---|---|-----------|---|---|---|---|
B|-----------|---|---|---|---|-----------|---|---|---|---|
G|-----------|---|---|-4-|---|-----------|---|---|---|---|
D|---------2-|---|---|-2-|---|---------2-|---|---|-4-|---|
A|---------2-|-5-|-4-|---|-5-|---------2-|-5-|-4-|-2-|-5-|
E|-0-0-0-0-0-|-3-|-2-|---|-3-|-0-0-0-0-0-|-3-|-2-|---|-3-|
x6 x6
                    Em                      D            Em
e|----------------------------------------|---|------------------------|
B|----------------------------------------|---|------------------------|
G|----------------------------------------|---|------------------------|
D|----------------------------------------|---|------------------------|
A|---------10----------10----------10--10-|-9-|---------10----------10-|
E|-0-0-0-0-----0-0-0-0-----0-0-0-0--------|---|-0-0-0-0-----0-0-0-0----|
   G   F  B   G
e|---|---|---|---|
B|---|---|---|---|
G|---|---|---|---|
D|---|---|-4-|---|
A|-5-|-4-|-2-|-5-|
E|-3-|-2-|---|-3-|
                        Em                        D             Em
e|----------------------------------------------|---|------------------------|
B|----------------------------------------------|---|------------------------|
G|----------------------------------------------|---|------------------------|
D|----------------------------------------------|---|------------------------|
A|---------10----------10----------10--10h12p10-|-9-|---------10----------10-|
E|-0-0-0-0-----0-0-0-0-----0-0-0-0--------------|---|-0-0-0-0-----0-0-0-0----|
   G   F  B   G   Em
e|---|---|---|---|---|
B|---|---|---|---|---|
G|---|---|---|---|---|
D|---|---|-4-|---|-2-|
A|-5-|-4-|-2-|-5-|-2-|
E|-3-|-2-|---|-3-|-0-|