Sum 41 - Half Hour Of Power Chords

 
         
         
         
         
3
2
4
3 fr
         
         
         
         
1
3
4
2
1
1
         
         
         
         
2
1
3
4
3 fr
         
         
         
         
X
X
3
2
1
1
5 fr
         
         
         
         
X
X
1
3
4
3
7 fr
         
         
         
         
X
4
3
1
2
1

10 fr
         
         
         
         
X
1
2
3
4
X
10 fr
         
         
         
         
X
1
3
3
3
1
12 fr
         
         
         
         
3
2
1
1
1
4
         
         
         
         
2
3
3 fr
         
         
         
         
X
X
2
4
1
7 fr
         
         
         
         
X
1
3
4
2
1
2 fr
         
         
         
         
X
X
1
3
4
2
3 fr
         
         
         
         
X
3
2
4
1
4 fr
         
         
         
         
X
4
3
1
2
X

12 fr
         
         
         
         
1
3
4
1
1
1

F

variations
         
         
         
         
1
3
4
2
1
1
         
         
         
         
X
X
3
2
1
1
6 fr
         
         
         
         
X
4
3
1
2
1
4 fr
         
         
         
         
X
X
1
2
4
3
9 fr
         
         
         
         
X
1
3
3
3
1
11 fr
         
         
         
         
4
3
1
1
1
X

11 fr
         
         
         
         
3
2
1
1
1
4
7 fr
         
         
         
         
1
3
4
2
1
1
         
         
         
         
X
2
1
X
3
         
         
         
         
X
1
4
4
4
X
         
         
         
         
X
1
3
3
3
1
4 fr
         
         
         
         
4
3
1
1
1
X
4 fr
         
         
         
         
3
2
1
1
1
4

9 fr
         
         
         
         
X
X
1
3
4
3
11 fr
         
         
         
         
X
4
3
1
2
1
         
         
         
         
X
X
1
3
2
2 fr
         
         
         
         
X
4
3
1
2
1
5 fr
         
         
         
         
X
1
2
3
4
1
5 fr
         
         
         
         
X
1
4
4
4
X
7 fr
         
         
         
         
4
3
1
1
1
X
7 fr
         
         
         
         
3
2
1
1
1
4

10 fr
         
         
         
         
1
3
4
2
1
1
12 fr
         
         
         
         
X
X
1
3
4
3
5 fr
         
         
         
         
X
X
         
         
         
         
X
3
2
1
3 fr
         
         
         
         
X
1
2
3
4
1
8 fr
         
         
         
         
1
3
4
2
1
1
3 fr
         
         
         
         
X
1
X
3
4
1
5 fr
         
         
         
         
3
2
1
1
1
4
10 fr
         
         
         
         
X
X
1
3
4
3

12 fr
         
         
         
         
X
4
3
1
2
1
3 fr
         
         
         
         
X

A

variations
4 fr
         
         
         
         
1
3
4
2
1
1
4 fr
         
         
         
         
X
X
3
2
1
1
6 fr
         
         
         
         
X
X
1
2
4
3
         
         
         
         
3
2
1
1
1
4
8 fr
         
         
         
         
X
4
3
1
2
1
11 fr
         
         
         
         
X
1
2
3
4
X

11 fr
         
         
         
         
X
1
3
3
3
1
         
         
         
         
1
3
4
1
1
1
         
         
         
         
X
X
3
1
1
1
3 fr
         
         
         
         
X
X
1
3
4
2
8 fr
         
         
         
         
X
1
3
4
2
1
5 fr
         
         
         
         
X
4
3
1
2
X

C

variations
4 fr
         
         
         
         
X
1
2
3
4
1
         
         
         
         
X
4
3
1
2
1
4 fr
         
         
         
         
X
1
4
4
4
X
6 fr
         
         
         
         
4
3
1
1
1
X
6 fr
         
         
         
         
3
2
1
1
1
4
9 fr
         
         
         
         
1
3
4
2
1
1

11 fr
         
         
         
         
X
X
1
3
4
3

E

variations
3 fr
         
         
         
         
X
4
3
1
2
1
6 fr
         
         
         
         
X
1
2
3
4
1
         
         
         
         
X
X
1
2
4
3
3 fr
         
         
         
         
X
4
3
1
2
X
8 fr
         
         
         
         
4
3
1
1
1
X
8 fr
         
         
         
         
3
2
1
1
1
4

11 fr
         
         
         
         
1
3
4
2
1
1

Bm

variations
         
         
         
         
X
1
3
4
2
1
6 fr
         
         
         
         
1
3
4
1
1
1
         
         
         
         
X
1
3
4
2
X
6 fr
         
         
         
         
X
X
3
1
1
1
8 fr
         
         
         
         
X
X
1
3
4
2
10 fr
         
         
         
         
X
4
3
1
2
X

Am

variations
4 fr
         
         
         
         
1
3
4
1
1
1
6 fr
         
         
         
         
X
X
1
3
4
2
4 fr
         
         
         
         
X
X
3
1
1
1
         
         
         
         
4
2
1
X
X
X
8 fr
         
         
         
         
X
4
3
1
2
X
11 fr
         
         
         
         
X
1
3
4
2
1
         
         
         
         
2
3
1
4 fr
         
         
         
         
X
4
3
1
2
1
7 fr
         
         
         
         
X
1
4
4
4
X
2 fr
         
         
         
         
X
X
1
2
4
3
4 fr
         
         
         
         
4
3
1
2
1
7 fr
         
         
         
         
X
1
3
3
3
1

9 fr
         
         
         
         
4
3
1
1
1
X
9 fr
         
         
         
         
3
2
1
1
1
4
12 fr
         
         
         
         
1
3
4
2
1
1
4 fr
         
         
         
         
X

Cm

variations
4 fr
         
         
         
         
X
1
3
4
2
1
9 fr
         
         
         
         
1
3
4
1
1
1
         
         
         
         
X
4
2
1
X
X
         
         
         
         
X
4
3
1
2
X
4 fr
         
         
         
         
X
1
X
X
2
1
11 fr
         
         
         
         
X
X
1
3
4
2

4 fr
         
         
         
         
X
X
         
         
         
         
1
3
4
2
1
1
5 fr
         
         
         
         
X
4
3
1
2
1
3 fr
         
         
         
         
X
X
1
2
4
3
         
         
         
         
X
X
3
2
1
1
8 fr
         
         
         
         
X
1
3
3
3
1
10 fr
         
         
         
         
4
3
1
1
1
X

10 fr
         
         
         
         
3
2
1
1
1
4
         
         
         
         
X
X
2
3
1
5 fr
         
         
         
         
X
1
3
4
2
1
10 fr
         
         
         
         
X
X
1
1
1
5 fr
         
         
         
         
X
X
3
2
1
2 fr
         
         
         
         
X
4
3
1
2
X
10 fr
         
         
         
         
1
3
4
1
1
1

12 fr
         
         
         
         
X
X
1
3
4
2
         
         
         
         
X
1
2
3
5 fr
         
         
         
         
1
3
4
2
1
1
2 fr
         
         
         
         
X
1
1
1
4
         
         
         
         
X
X
1
2
2 fr
         
         
         
         
3
2
1
1
1
4
7 fr
         
         
         
         
X
X
1
3
4
3

9 fr
         
         
         
         
X
4
3
1
2
1
12 fr
         
         
         
         
X
1
3
3
3
1
3 fr
         
         
         
         
1
3
4
1
1
1
5 fr
         
         
         
         
X
X
1
3
4
2
3 fr
         
         
         
         
X
X
3
1
1
1
         
         
         
         
1
X
2
3
4
         
         
         
         
3
1
X
X
X
         
         
         
         
2
1
3
4

7 fr
         
         
         
         
X
4
3
1
2
X
10 fr
         
         
         
         
X
1
3
4
2
1

B

variations
         
         
         
         
X
1
2
3
4
1
6 fr
         
         
         
         
1
3
4
2
1
1
         
         
         
         
X
1
4
4
4
X
         
         
         
         
X
1
X
3
4
1
3 fr
         
         
         
         
3
2
1
1
1
4
8 fr
         
         
         
         
X
X
1
3
4
3

10 fr
         
         
         
         
X
4
3
1
2
1
3 fr
         
         
         
         
X
1
3
4
2
1
8 fr
         
         
         
         
1
3
4
1
1
1
         
         
         
         
X
3
1
X
X
         
         
         
         
X
4
1
2
X
8 fr
         
         
         
         
X
X
3
1
1
1
10 fr
         
         
         
         
X
X
1
3
4
2

12 fr
         
         
         
         
X
4
3
1
2
X

B/D

variations
         
         
         
         
X
X
3
4
1
3 fr
         
         
         
         
X
3
1
1
1
X
5 fr
         
         
         
         
X
1
4
3
2
X
5 fr
         
         
         
         
X
1
X
X
4
4
         
         
         
         
X
1
3
4
2
1
7 fr
         
         
         
         
1
3
4
1
1
1
         
         
         
         
X
1
3
4
2
X
7 fr
         
         
         
         
X
X
3
1
1
1
9 fr
         
         
         
         
X
X
1
3
4
2
11 fr
         
         
         
         
X
4
3
1
2
X
         
         
         
         
X
2
3
1
5 fr
         
         
         
         
1
3
4
1
1
1
5 fr
         
         
         
         
X
X
1
1
1
8 fr
         
         
         
         
X
3
2
4
1
2 fr
         
         
         
         
X
1
4
4
4
7 fr
         
         
         
         
X
1
3
4
2

9 fr
         
         
         
         
X
4
3
1
2
X
12 fr
         
         
         
         
X
1
3
4
2
1
5 fr
         
         
         
         
X

Fm

variations
         
         
         
         
1
3
4
1
1
1
4 fr
         
         
         
         
X
X
1
3
4
2
         
         
         
         
X
X
3
1
1
1
9 fr
         
         
         
         
X
1
3
4
2
1
6 fr
         
         
         
         
X
4
3
1
2
X

E/G

variations
4 fr
         
         
         
         
1
4
3
1
2
1
         
         
         
         
4
2
3
1
4 fr
         
         
         
         
1
X
X
2
4
3
4 fr
         
         
         
         
X
X
3
1
2
1
No chord
Standard guitar tuning:
E
A
D
G
B
E
No capo
Key: G Chords used: Deryck:
         Em          G   F  Em  B

G

e|-0-2-3-5-3-2-0---|-3-|-2-|-0-|---|-0-|-2-| B|---------------3-|---|---|---|-4-|---|---| G|-----------------|---|---|---|---|---|---| D|-----------------|---|---|---|---|---|---| A|-----------------|---|---|---|---|---|---| E|-----------------|---|---|---|---|---|---|
         x7

Em D C

e|---------------------------|---------------------------|---------------------------| B|---------------------------|---------------------------|---------------------------| G|-9-------------------------|-7-------------------------|-5-------------------------| D|-9-------------------------|-7-------------------------|-5-------------------------| A|-7--7-7-7--7-7-7--7-7-7--7-|-5--5-5-5--5-5-5--5-5-5--5-|-3--3-3-3--3-3-3--3-3-3--3-| E|---------------------------|---------------------------|---------------------------|
   G   F  Em  B   F  G
e|-3-|-2-|-0-|---|-0-|-2-|
B|---|---|---|-4-|---|---|
G|---|---|---|---|---|---|
D|---|---|---|---|---|---|
A|---|---|---|---|---|---|
E|---|---|---|---|---|---|
              Em                           D                           C
e|---------------------------|---------------------------|---------------------------|
B|---------------------------|---------------------------|---------------------------|
G|-9-------------------------|-7-------------------------|-5-------------------------|
D|-9-------------------------|-7-------------------------|-5-------------------------|
A|-7--7-7-7--7-7-7--7-7-7--7-|-5--5-5-5--5-5-5--5-5-5--5-|-3--3-3-3--3-3-3--3-3-3--3-|
E|---------------------------|---------------------------|---------------------------|
   G   F  Em  B   F  G
e|-3-|-2-|-0-|---|-0-|-2-|
B|---|---|---|-4-|---|---|
G|---|---|---|---|---|---|
D|---|---|---|---|---|---|
A|---|---|---|---|---|---|
E|---|---|---|---|---|---|
         Em                 D                 C
e|-0-2-3-5-3-2-0---|-0-2-3-5-3-2-0---|-0-2-3-5-3-2-0---|
B|---------------3-|---------------3-|---------------3-|
G|-----------------|-----------------|-----------------|
D|-----------------|-----------------|-----------------|
A|-----------------|-----------------|-----------------|
E|-----------------|-----------------|-----------------|
   G   F  Em  B   F  G
e|-3-|-2-|-0-|---|-0-|-2-|
B|---|---|---|-4-|---|---|
G|---|---|---|---|---|---|
D|---|---|---|---|---|---|
A|---|---|---|---|---|---|
E|---|---|---|---|---|---|
         Em                 D                 C
e|-0-2-3-5-3-2-0---|-0-2-3-5-3-2-0---|-0-2-3-5-3-2-0---|
B|---------------3-|---------------3-|---------------3-|
G|-----------------|-----------------|-----------------|
D|-----------------|-----------------|-----------------|
A|-----------------|-----------------|-----------------|
E|-----------------|-----------------|-----------------|
   G   F  Em  B   F  G

G F B G

e|-3-|-2-|-0-|---|-0-|-2-|---|------|---|---|---|---| B|---|---|---|-4-|---|---|---|------|---|---|---|---| G|---|---|---|---|---|---|---|------|---|---|---|---| D|---|---|---|---|---|---|-2-|------|---|---|-4-|---| A|---|---|---|---|---|---|-2-|-4/16-|-5-|-4-|-2-|-5-| E|---|---|---|---|---|---|-0-|------|-3-|-2-|---|-3-|
      Em       G   F  B   G

G F B G

e|-----------|---|---|---|---|-----------|---|---|---|---| B|-----------|---|---|---|---|-----------|---|---|---|---| G|-----------|---|---|-4-|---|-----------|---|---|---|---| D|---------2-|---|---|-2-|---|---------2-|---|---|-4-|---| A|---------2-|-5-|-4-|---|-5-|---------2-|-5-|-4-|-2-|-5-| E|-0-0-0-0-0-|-3-|-2-|---|-3-|-0-0-0-0-0-|-3-|-2-|---|-3-|
x6 x6
                  Em                    D            Em
e|------------------------------------|---|----------------------|
B|------------------------------------|---|----------------------|
G|------------------------------------|---|----------------------|
D|------------------------------------|---|----------------------|
A|---------7----------7----------7--7-|-5-|---------7----------7-|
E|-0-0-0-0----0-0-0-0----0-0-0-0------|---|-0-0-0-0----0-0-0-0---|
   G   F  B   G
e|---|---|---|---|
B|---|---|---|---|
G|---|---|---|---|
D|---|---|-4-|---|
A|-5-|-4-|-2-|-5-|
E|-3-|-2-|---|-3-|
                    Em                      D           Em
e|----------------------------------------|---|----------------------|
B|----------------------------------------|---|----------------------|
G|----------------------------------------|---|----------------------|
D|----------------------------------------|---|----------------------|
A|---------7----------7----------7--7h9p7-|-5-|---------7----------7-|
E|-0-0-0-0----0-0-0-0----0-0-0-0----------|---|-0-0-0-0----0-0-0-0---|
   G   F  B   G   Em
e|---|---|---|---|---|
B|---|---|---|---|---|
G|---|---|---|---|---|
D|---|---|-4-|---|-2-|
A|-5-|-4-|-2-|-5-|-2-|
E|-3-|-2-|---|-3-|-0-|
Dave:
         Em          G   F  Em  B

G

e|-7-5-7-8-7-5-----|-7-|-5-|---|---|---|-5-| B|-------------8-7-|---|---|-8-|-7-|-8-|---| G|-----------------|---|---|---|---|---|---| D|-----------------|---|---|---|---|---|---| A|-----------------|---|---|---|---|---|---| E|-----------------|---|---|---|---|---|---|
x3
              Em                           D                           C
e|---------------------------|---------------------------|---------------------------|
B|---------------------------|---------------------------|---------------------------|
G|-9-------------------------|-7-------------------------|-5-------------------------|
D|-9-------------------------|-7-------------------------|-5-------------------------|
A|-7--7-7-7--7-7-7--7-7-7--7-|-5--5-5-5--5-5-5--5-5-5--5-|-3--3-3-3--3-3-3--3-3-3--3-|
E|---------------------------|---------------------------|---------------------------|
   G   F  Em  B   F  G
e|-7-|-5-|---|---|---|-5-|
B|---|---|-8-|-7-|-8-|---|
G|---|---|---|---|---|---|
D|---|---|---|---|---|---|
A|---|---|---|---|---|---|
E|---|---|---|---|---|---|
              Em                           D                           C
e|---------------------------|---------------------------|---------------------------|
B|---------------------------|---------------------------|---------------------------|
G|---------------------------|---------------------------|---------------------------|
D|-5--5-5-5--5-5-5--5-5-5--5-|-4--4-4-4--4-4-4--4-4-4--4-|-2--2-2-2--2-2-2--2-2-2--2-|
A|---------------------------|---------------------------|---------------------------|
E|---------------------------|---------------------------|---------------------------|
   G   F  Em  B   F  G
e|-7-|-5-|---|---|---|-5-|
B|---|---|-8-|-7-|-8-|---|
G|---|---|---|---|---|---|
D|---|---|---|---|---|---|
A|---|---|---|---|---|---|
E|---|---|---|---|---|---|
         Em                 D                 C
e|-7-5-7-8-7-5-----|-7-5-7-8-7-5-----|-7-5-7-8-7-5-----|
B|-------------8-7-|-------------8-7-|-------------8-7-|
G|-----------------|-----------------|-----------------|
D|-----------------|-----------------|-----------------|
A|-----------------|-----------------|-----------------|
E|-----------------|-----------------|-----------------|
   G   F  Em  B   F  G
e|-7-|-5-|---|---|---|-5-|
B|---|---|-8-|-7-|-8-|---|
G|---|---|---|---|---|---|
D|---|---|---|---|---|---|
A|---|---|---|---|---|---|
E|---|---|---|---|---|---|
         Em                 D                 C
e|-7-5-7-8-7-5-----|-7-5-7-8-7-5-----|-7-5-7-8-7-5-----|
B|-------------8-7-|-------------8-7-|-------------8-7-|
G|-----------------|-----------------|-----------------|
D|-----------------|-----------------|-----------------|
A|-----------------|-----------------|-----------------|
E|-----------------|-----------------|-----------------|
   G   F  Em  B   F  G   Em
e|-7-|-5-|---|---|---|-5-|---|
B|---|---|-8-|-7-|-8-|---|---|
G|---|---|---|---|---|---|---|
D|---|---|---|---|---|---|-2-|
A|---|---|---|---|---|---|-2-|
E|---|---|---|---|---|---|-0-|
      Em       G   F  B   G

G F B G

e|-----------|---|---|---|---|-----------|---|---|---|---| B|-----------|---|---|---|---|-----------|---|---|---|---| G|-----------|---|---|-4-|---|-----------|---|---|---|---| D|---------2-|---|---|-2-|---|---------2-|---|---|-4-|---| A|---------2-|-5-|-4-|---|-5-|---------2-|-5-|-4-|-2-|-5-| E|-0-0-0-0-0-|-3-|-2-|---|-3-|-0-0-0-0-0-|-3-|-2-|---|-3-|
x6 x6
                    Em                      D            Em
e|----------------------------------------|---|------------------------|
B|----------------------------------------|---|------------------------|
G|----------------------------------------|---|------------------------|
D|----------------------------------------|---|------------------------|
A|---------10----------10----------10--10-|-9-|---------10----------10-|
E|-0-0-0-0-----0-0-0-0-----0-0-0-0--------|---|-0-0-0-0-----0-0-0-0----|
   G   F  B   G
e|---|---|---|---|
B|---|---|---|---|
G|---|---|---|---|
D|---|---|-4-|---|
A|-5-|-4-|-2-|-5-|
E|-3-|-2-|---|-3-|
                        Em                        D             Em
e|----------------------------------------------|---|------------------------|
B|----------------------------------------------|---|------------------------|
G|----------------------------------------------|---|------------------------|
D|----------------------------------------------|---|------------------------|
A|---------10----------10----------10--10h12p10-|-9-|---------10----------10-|
E|-0-0-0-0-----0-0-0-0-----0-0-0-0--------------|---|-0-0-0-0-----0-0-0-0----|
   G   F  B   G   Em
e|---|---|---|---|---|
B|---|---|---|---|---|
G|---|---|---|---|---|
D|---|---|-4-|---|-2-|
A|-5-|-4-|-2-|-5-|-2-|
E|-3-|-2-|---|-3-|-0-|
2.) Machine Gun Key: A Chords used:

Intro

A-F-Fm-C x3, A

Verse 1

A And I'm up and I Fdon't know why But I Cguess that's all that Acounts A Looking around as I'm Fholding my head And I'm Cin somebody's Ahouse A The sun it hits like a Fpunch in the face With a Cheadache I can't igAnore A Seems almost Fevery weekend my Cbed is someone's Afloor

Chorus 1

And so FI can't Fmkeep this Aup A G FI have Fmhad eAnoughF

Interlude

A-F-Fm-C x2

Verse 2

AEating cold pizza on the Fside of the curb To cover Cup my morning breath of Agin A Something doesn't seem to Fsit with me right It's Cgoing out the way it went Ain

C

Chorus 2

Cause Cyou can count me Eout I'm on to Ayou Cause Cyou can count me Eout I'm tired of Bmleaving my emAbarassments beFhind

Guitar solo

A-F-Fm-C x4

e|-------------------------------------------------|
B|--10/14--13-14-13-14-16-14-----------------13----|
G|---------------------------13--11-13-11-13----13-|
D|-------------------------------------------------|
A|-------------------------------------------------|
E|-------------------------------------------------|
e|--------------------------13-------------------|
B|-14-13-14-13-14-13-14-16-----16-14-13-14-13----|
G|--------------------------------------------15-|
D|-----------------------------------------------|
A|-----------------------------------------------|
E|-----------------------------------------------|
e|---------------------------------------------|
B|-------------14-13-----------------14-13-----|
G|-13-11-13-11-------13--13-11-13-11-------13--|
D|---------------------------------------------|
A|---------------------------------------------|
E|---------------------------------------------|
e|-----------------------11-13-11--------------|
B|-------------14-13--------------14-13--------|
G|-13-11-13-11-------13-----------------15-13--|
D|---------------------------------------------|
A|---------------------------------------------|
E|---------------------------------------------|

Bass solo

G#-F#-C#-- x4

Bridge

Ana, Fna na na Cna, na na na Ana na Fna na na Cna Ana, Fna na na Cna, na na na Ana na Fna na na Cna Ana, Fna na na Cna, na na na Ana na Fna na na Cna

Breakdown

(press the keys fast!!!) F-Fm-F-A x10

Outro

A-F-Fm-C x4, A

3.) What I Believe Key: F Chords used:

Intro

B----E-
B--G#m--F#--E-- x2

Verse 1

BLies and deceiving is Amwhat I'm believing FUp to my knees so hard to breathe It Ehelps that you aren't there BCan't figure out what's the Amright thing for me FGuess I'll have to wait and BseeCm B

Chorus

FSo undersEtanding but Fso far from the Amtruth It's Fwhat I have to live with It's Enot all I Fwanted to Bbe It's Enot all I Fwanted to Bsee I Ecan't keep on Fleading I've Bleft what I'm Eleaving FGuess that's just Ewhat I believe

Interlude

B--G#m--F#--E-- x2

Verse 2

BConsciously taking and Amoverly faking FI can't believe all the Ethings that you're saying BSeems all so simple it's Amall up to you FTime after time You Elost what you couldn't findB It's what you Fcould

E

It's Amonly what you Ecould

B

Don't Ftake what you Ecould But AmI know what's Fup

Interlude

B--G#m--F#--E-- x2

C

Outro

B Am F I EGuess that's just what I believe B Am F I EGuess that's just what I beBlieve 4.) T.H.T. Key: F Chords used:

Intro

Dm-F-Dm-F-Dm-F-A-- x4

Verse

DmYou don't have the Fanswers but you're Dmalways blaming Ame It Dmonly lies in Fyour behalf in DmanimosiAty DmYou decide it's Fup to you make Dmit what you'll Abe After Dmall you seem to Fbe it makes Dmno sense to Ame

Chorus

Gm Don't point your Afinger at meDm F Dm F Gm It's all Ayour desDmtinyF Dm F Gm You think it's Aall gameF so quick to Empoint the blame

Gm A Dm F Dm F

F And now tables have turned SHUT DmUP 5.) Makes No Difference Key: E Chords used:

Intro

E-B-Cm-A x4

Verse 1

ERunning fast and B/Dmissing but Cmcannot help conAvincing The Ereasons you B/Dgave me are Cmall wearing Athin It's Enot meant to B/Dhurt you but Cmlet me asAsure you It's Enot what I B/Dsaid but inCmtentions you've Aread

Chorus 1

So Ewhen you Fmhold onto the Apast then you Will Bbreak down what little is leftE yeah There's Fmnothing more you Acan't ignore And say it Bmakes no difference to Eme B It Cmmakes no Adifference to Eme B Cm A

Verse 2

ENow that you're B/Dolder life's Cmweighing on your Ashoulders You Ecan't seem to B/Dkeep things so Cmperfectly sAtraight With Emost things so B/Dbasic you Cmmight as well Aface it You Ecan't help but B/Dworry it's Cmall just beAgun

Chorus 2

So Ewhen you Fmhold onto the Apast then you Will Bbreak down what little is leftE yeah There's Fmnothing more you Acan't ignore And say it Bmakes no difference to me

Interlude

E-B/D-B-A x4,

x4

Bridge

E B It Cmmakes no Adifference to me E B It Cmmakes no Adifference to me E B It Cmmakes no Adifference to me E B It Cmmakes no Adifference

Chorus 3

So Ewhen you Fmhold onto the Apast then you Will Bbreak down what little is leftE yeah There's Fmnothing more you Acan't ignore And say it Bmakes no difference to Eme B E B It Cmmakes no Adifference to me E B It Cmmakes no Adifference E B It Cmmakes no Adifference to me E B It Cmmakes no Adifference

Ex2 B Cm A

It makes no difference to me 6.) Summer Key: D

Intro

DIt's far beyond your reach, it Bmholds a place in time, EmSomewhere ahead is the Gback of the line. I cDan't relate to Bmyour mistakes, Emawkwardly speaking with Gnothing to say. DCaught up in your life, Bmexcuses are so lame, EmYou may be different but GI'm still the same. The Dreasons that you thought, the inBmtention that you caught, You Emsay things are simple we Gboth know they're not. Em You can't let it gGo, DWhoBma. G Em You can't but I Gknow. DWhBmoa G ,D Whoa you Bmdon't even Gknow.

Chorus

DIt's not in Bmwhat you do,G more in Awhat you say. DA million questions asked,Bm the remnants of the past. EmYou've always been deGnied, but always by your side. DI've always tried to,Bm to understand you, Emthe worlds not Glearning from you. DWhBmoa.G WDhoaBm. G

Chorus

End on D 7.) 32 Ways To Die Key: C Chords used:

Intro

Stevo drum solo

Verse

C-- x8
Dave:
e|------------------------------------------|
B|------------------------------------------|
G|-9-----9--10----10--12-------12--10----10-|
D|-x-----x---x-----x---x--------x---x-----x-|
A|-7-7-7-7---8-8-8-8--10-10-10-10---8-8-8-8-|
E|------------------------------------------|
C--F-- x16
Dave:
e|-------------------|
B|-------------------|
G|-9-----9--10----10-|
D|-x-----x---x-----x-|
A|-7-7-7-7---8-8-8-8-|
E|-------------------|

Outro

C

Dave:
e|---
B|---

G|-9-

D|-x-

A|-7-

E|---
8.) Second Chance For Max Hedroom Key: C Chords used:

Intro

C--F--C--G--(hold)-F

Verse 1

CAh FNot enough you Cpassed it for a Gwhile You Fcan't afford the amass of deCnial FDon't explain you Ccan't arcane it Gtoo Your Amlies surFpassed your Cdoubt

Chorus 1

C Don't do Fsomething you'll regGretF C Don't do Fsomething you'll regGretF

Interlude

C--F--C--F(hold)-Riff
e|-------------|
B|-1-----------|
G|----2--0h2---|
D|-----------2-|
A|-------------|
E|-------------|

Verse 2

CAh FNot enough you Cpassed it for a Gwhile Your Amminds misFtake The Amtime you Ftake GTime worth Fthrowing all away

Guitar solo 1

C--Am--C-Am-Dm-F-C-Am-Dm-F-C--Am Piano: C-- x4 Trumpet: Reggae Punk Feel

C-F-G-C- x3, C-F

Guitar solo 2

G(hold)--C--

Chorus 2

C It's not enough attention F Though you're too proud to mention C I can't go on pretending GThat it's sFtill the same End on C(hold) 9.) Dave's Possesed Hair/It's What We're All about Key: B then A Chords used: I. Dave's Possesed Hair

Intro

B-F-E-A- x4

Verse 1

B Ever get the feeling no one's got your back E Caught up in themselves living lies besides the factB Somehow you're going on an opposite track E As we recover from another social heart attack

Refrain

F You think you see between the Elines F But you can't see through dollar Esigns

Chorus 1

B So sick and Ftasteless now A Immature and Efaceless how B Can I Feven sleep at Anight you Eask B You say you're a Fpacifist A Instead you Ewave your fist B And all the Fwhile it becomes the Aend aEgain

Interlude

B-F-E-A- x4

Verse 2

B Make up your mind cause I can't decide E You think uniqueulism makes you dignified B You can't see with half opened eyes E You think you're standing up insAtead you're falling far behind

Chorus 1

B So sick and Ftasteless now A Immature and Efaceless how B Can I Feven sleep at Anight you Eask B You say you're a FpaciAfist then you Ewave your fist B And all the Fwhile it becomes the Aend aEgain

Bridge

D What I do is what I Achoose which makes it my deEcision D If your life was a Abook your story would be Ffiction II. It's What We're All About

Intro

F#(palm mute)-- x10

Verse 1

Rap Stevo: FmNever the less Am I Adressed for the occasion? It's Bm#32 now here's the situation Deryck: If the Fmbeat moves you're feet then Adon't change the station Cone: Pack your Bmbags cause we're leaving on a permanent vacation Stevo: Well FmI'm a disaster Cone: A Amicrophone master Deryck: BmPut on the tape and rock your ghetto blaster Stevo: It's Fmnot about the money cars hoAtels or resorts It's about Bmsweating all the bitches in the biker shorts Dave: I'm FmHot Chocolate and you Asee me running late Cuz I'm Bmalways making time to make your girlie feel great Deryck: And FmI'm Bizzy D from Away down Dave: town Deryck: and I'm Bmknown to rock the mike like the King wears a Dave: crown Stevo: FmWhen I'm on top Cone: with Aall that Dave:: BOOTY Cone: BmHussiling deals like Dave: Mickey moncooty Stevo: FmWhen I wake up I like a Apound of bacon SBmtart off the day with my arteries shaking

Chorus

FmRock!A It's what we're Bmall aCbout! It's what we Fmlive for!A Come on! BmShout it out!C

Verse 2

also rap Dave: See me Fmin 3-D I'm coming Aright indirect with a Bmdialect Most men of sciece Can't dissect FmThoughts interwoven and Alet us interlock So Bmnow it's my thing to blow off steam and get my cream FmSum 41 get Awild I get franticBm And every time we spit it the world panicks I Fmmaybe lost my mind well I Aain't through the coop But BmSum 41 just ain't about a loop FmRing a ling a ling ding Adong tick tock shit it's Bmall about rap And maybe all about rock! 10.) Ride The Chariot To The Devil Key: A Chords used:

Intro

x2

Verse

Deryck: x4

Fm D

e|-----------------------|-0---------------------| B|-2--2-2-2--2-2-2--0--2-|-----------------------| G|-----------------------|----2-2-2--2-2-2--1----| D|-----------------------|---------------------4-| A|-----------------------|-----------------------| E|-----------------------|-----------------------|
           A                        E
e|-----------------------|-0---------------------|
B|-2--2-2-2--2-2-2--0--2-|-----------------------|
G|-----------------------|----2-2-2--2-2-2--1----|
D|-----------------------|---------------------4-|
A|-----------------------|-----------------------|
E|-----------------------|-----------------------|
Dave:

Fm D

e|-------------------------------|-9------------------------------| B|-10--10-10-10--10-10-10--9--10-|----10-10-10--10-10-10--9-------| G|-------------------------------|---------------------------11---| D|-------------------------------|--------------------------------| A|-------------------------------|--------------------------------| E|-------------------------------|--------------------------------|
                                                                 |- x2

A E

e|-------------------------------|-9------------------------------| B|-10--10-10-10--10-10-10--9--10-|----10-10-10--10-10-10--9-------| G|-------------------------------|---------------------------11---| D|-------------------------------|--------------------------------| A|-------------------------------|--------------------------------| E|-------------------------------|--------------------------------|
            Fm                        D
e|-9--9-9-9--9-9-9------9-|-12--9-9-9--9-9-9---------|
B|------------------12----|-------------------12--10-|
G|------------------------|--------------------------|
D|------------------------|--------------------------|
A|------------------------|--------------------------|
E|------------------------|--------------------------|
                                                     |- x2

A E

e|-9--9-9-9--9-9-9------9-|-12--9-9-9--9-9-9---------| B|------------------12----|-------------------12--10-| G|------------------------|--------------------------| D|------------------------|--------------------------| A|------------------------|--------------------------| E|------------------------|--------------------------|

Outro

x2 Fm(hold) 11.) Another Time Around Key: A Chords used:

Intro

C#m--D--A--G#m--F#m--A--E---|
A-E/G#-A-E-------------------------| x4

Verse 1

D In my Ayears I've Eseen all sounds of misconception D In my Ayears I've Edone all I can live to question

Refrain

D What Ahappened to Eme I don't understand D I've seen Aall I can Esee as my time expands

Interlude

D-A-E-- x2

Verse 2

D Bored I Aam Ebored of my own desperation D I can't deAfend can't Efind my own destination

Chorus

D What's up with Ayou what's up withE me D What's up with Ayou what's up withE me

Bridge

Bm I'm not the Done I can't preAtendE/G Fm What would I Ebe if I did it all again

Interlude

A-E/G#-A-E-------| x4
C#m--D--A--G#m--F#m--A--E---|

Verse 3

D And I someAtimes Ewish I would have asked some questionsD Then maybe AI would Ehave a clearer life perception

C

Outro

D A A A A A A

Stevo drum solo

A time around