Superman Is Dead - Poppies Dog Anthem Chords

 
3 fr
         
         
         
         
1
3
4
X
X
X
5 fr
         
         
         
         
X
X
1
3
4
X
10 fr
         
         
         
         
X
1
3
4
X
X
         
         
         
         
X
3 fr
         
         
         
         
X
X
3 fr
         
         
         
         
X
1
3
4
X
X
8 fr
         
         
         
         
1
3
4
X
X
X
10 fr
         
         
         
         
X
X
1
3
4
X
3 fr
         
         
         
         
X
X
         
         
         
         
X
X
1
2
X
5 fr
         
         
         
         
X
1
3
4
X
X
10 fr
         
         
         
         
1
3
4
X
X
X
No chord
Standard guitar tuning:
E
A
D
G
B
E
No capo

Intro guitar

e|-----------------------------------------------0-|
B|-----------------------------------------------0-|
G|-7-/12--12119/9117-4-----7-/12--121197912--57--0-|
D|-------------------------------------------57550-|
A|-5-/10--109-7/79-5-2-----5-/10--109-75710--3555--|
E|---------------------------------------------33--|
haG5ri ini bangun pagi puC5sing yang tak terD5tahankan dan G5cepat baca korannya hai C5jangan terbaD5lik jhoG5ny kena rudy juga aC5da di halaD5man depan seG5gera kontak temanmu untuk C5lebih D5waspaG5da buD5rung berkicau ada C5yang mengingkari aD5tur strategi agar C5bisa berlaG5ri D5janganlah risau mainC5kanlah daduG5mu C5dan teD5riakkan

Chorus guitar

e|-----------------------------------------------0-|
B|-----------------------------------------------0-|
G|-7-/12--12119/9117-4-----7-/12--121197912--57--0-|
D|-------------------------------------------57550-|
A|-5-/10--109-7/79-5-2-----5-/10--109-75710--3555--|
E|---------------------------------------------33--|
peG5nuh gaya kaca mata banC5dit cinta keD5sepian siaG5pa berani mendekat kan paC5sti disiD5kat jeG5ni sudah mona juga haC5bis di hotel D5belakang dan G5cinta kan berakhir di C5bandar D5udaG5ra kuD5cing mendekat manis C5siapa namanya aD5tur strategi agar C5dia menjeG5rit D5tak usah risau mainC5kanlah kartuG5mu C5dan teriD5akkan G5brandalan brandalan C5poppies D52 G5brandalan brandalan yang C5tak pernah D5mati G5brandalan brandalan C5poppies D52 G5bukanlah berandalan C5yang saD5kit haG5ti
Chorus Guitar 2
e|--------------0-|     e|------------|
B|--------------0-|     B|------------|
G|-5/75/75/755--0-| 3X  G|-5/77777777-|
D|-5/75/75/7555-0-|     D|-5/77777777-|
A|-3/53/53/5335---|     A|-3/55555555-|
E|------------3---|     E|------------|

Solo guitar

e|----77/875-----------77/875--|
B|---8------8---------8------8-|
G|-/7---------------/7---------|
D|-----------------------------|
A|-----------------------------|
E|-----------------------------|
Selamat mencoba aspirasi baru dan kembangkalah tab and coord diatas hingga menjadi sempurna mari bersulang afx-nasumamata