System of A Down - Aerials Chords

Main Riff
Main Riff
 
No chord
Standard guitar tuning:
E
A
D
G
B
E
No capo
|-----0-----0-----0-----0-----0--|-----0-----0-----0-----0-----0--
|---0-----0-----0-----0-----0----|---0-----0-----0-----0-----0----
|--------------------------------|--------------------------------
|--------------------------------|--------------------------------
|--------------------------------|--------------------------------
|-4-----3-----1-----1-----1-----1|-6-----4-----3-----3-----3-----3

Riff 1

Intro and chorus) no distortion
|-----0-----0-----0-----0-------0|-----0-----0-----0-----0-----0--
|---0-----0-----0-----0-----0----|---0-----0-----0-----0-----0----
|--------------------------------|--------------------------------
|--------------------------------|--------------------------------
|--------------------------------|--------------------------------
|-4-----6-----8-----9-----8---6--|-4-----3-----1-----1-----1-----1
|-----0-----0-----0-----0-----0--|-----0-----0-----0-----0-----0--
|---0-----0-----0-----0-----0----|---0-----0-----0-----0-----0----
|--------------------------------|--------------------------------
|--------------------------------|--------------------------------
|-6-----4-----1-----1-----1-----1|/8-----4-----1-----1-----1-----1
|--------------------------------|--------------------------------
|------0-----0-----0------0------|-----0--------------------------
|----0-----0-----0------0-------0|---0-----0-----0---0---0---0---0
|--------------------------------|--------------------------------
|--------------------------------|--------------------------------
|-/6-----8-----9-----11-----9-8--|-6-----4-----1---1---1---1---1--
|--------------------------------|--------------------------------
|----------|---------|-----------------------|-----------------------|
|----------|---------|---------12---------11-|---------10---------8--|
|*-4-4-4-4-|-4-4-4-4-|---------12---------11-|---------10---------8-*|
|*-4-4-4-4-|-4-4-4-4-|-1-1-1-1-11-1-1-1-1--9-|-1-1-1-1--8-1-1-1-1-6-*|
|--2-2-2-2-|-2-2-2-2-|-1-1-1-1----1-1-1-1----|-1-1-1-1----1-1-1-1----|
|----------|---------|-1-1-1-1----1-1-1-1----|-1-1-1-1----1-1-1-1----|

Riff 2

Verses) w/distortion

Verse 1

repeat four times. on the last time only play first two measures and go back to Riff 1.

Verse 2

repeat two times followed by Riff 2A and Riff 3
|---------|---------|---------|---------|
|---------|---------|---------|---------|
|-4-4-4-4-|-4-4-4-4-|-3-3-3-3-|-3-3-3-3-|
|-4-4-4-4-|-4-4-4-4-|-3-3-3-3-|-3-3-3-3-|
|-2-2-2-2-|-2-2-2-2-|-1-1-1-1-|-1-1-1-1-|
|---------|---------|---------|---------|

Riff 2a

|--------|-------|-------------|--------|
|--------|-------|-------------|--------|
|*-------|-------|-------------|-------*|
|*-4-3-1-|-6-4-3-|-4-6-8-9-8-6-|-4-3-1-*|
|--4-3-1-|-6-4-3-|-4-6-8-9-8-6-|-4-3-1--|
|--4-3-1-|-6-4-3-|-4-6-8-9-8-6-|-4-3-1--|

Riff 3

Final chorus) repeat twice. insert slides at the end of the first, second, and fourth measures when repeating. go back to Riff 1 and repeat until the song ends.