Tankcsapda - Ember Tervez Chords

 
         
         
         
         
X
1
2
3
5 fr
         
         
         
         
1
3
4
2
1
1
2 fr
         
         
         
         
X
1
1
1
4
         
         
         
         
X
X
1
2
2 fr
         
         
         
         
3
2
1
1
1
4
7 fr
         
         
         
         
X
X
1
3
4
3

9 fr
         
         
         
         
X
4
3
1
2
1
12 fr
         
         
         
         
X
1
3
3
3
1
         
         
         
         
X
X
1
3
2
2 fr
         
         
         
         
X
4
3
1
2
1
5 fr
         
         
         
         
X
1
2
3
4
1
5 fr
         
         
         
         
X
1
4
4
4
X
7 fr
         
         
         
         
4
3
1
1
1
X
7 fr
         
         
         
         
3
2
1
1
1
4

10 fr
         
         
         
         
1
3
4
2
1
1
12 fr
         
         
         
         
X
X
1
3
4
3
5 fr
         
         
         
         
X
X
         
         
         
         
X
X
2
3
1
5 fr
         
         
         
         
X
1
3
4
2
1
10 fr
         
         
         
         
X
X
1
1
1
5 fr
         
         
         
         
X
X
3
2
1
2 fr
         
         
         
         
X
4
3
1
2
X
10 fr
         
         
         
         
1
3
4
1
1
1

12 fr
         
         
         
         
X
X
1
3
4
2
         
         
         
         
1
3
4
2
1
1
5 fr
         
         
         
         
X
4
3
1
2
1
3 fr
         
         
         
         
X
X
1
2
4
3
         
         
         
         
X
X
3
2
1
1
8 fr
         
         
         
         
X
1
3
3
3
1
10 fr
         
         
         
         
4
3
1
1
1
X

10 fr
         
         
         
         
3
2
1
1
1
4
         
         
         
         
X
3
2
1
3 fr
         
         
         
         
X
1
2
3
4
1
8 fr
         
         
         
         
1
3
4
2
1
1
3 fr
         
         
         
         
X
1
X
3
4
1
5 fr
         
         
         
         
3
2
1
1
1
4
10 fr
         
         
         
         
X
X
1
3
4
3

12 fr
         
         
         
         
X
4
3
1
2
1
3 fr
         
         
         
         
X

B

variations
         
         
         
         
X
1
2
3
4
1
6 fr
         
         
         
         
1
3
4
2
1
1
         
         
         
         
X
1
4
4
4
X
         
         
         
         
X
1
X
3
4
1
3 fr
         
         
         
         
3
2
1
1
1
4
8 fr
         
         
         
         
X
X
1
3
4
3

10 fr
         
         
         
         
X
4
3
1
2
1
         
         
         
         
2
3
3 fr
         
         
         
         
X
X
2
4
1
7 fr
         
         
         
         
X
1
3
4
2
1
2 fr
         
         
         
         
X
X
1
3
4
2
3 fr
         
         
         
         
X
3
2
4
1
4 fr
         
         
         
         
X
4
3
1
2
X

12 fr
         
         
         
         
1
3
4
1
1
1
         
         
         
         
2
7 fr
         
         
         
         
X
1
3
1
2
1
         
         
         
         
X
X
1
3
2
2
         
         
         
         
1
2
4
4
         
         
         
         
2
3
4
         
         
         
         
2
4

3 fr
         
         
         
         
X
3
2
1
5 fr
         
         
         
         
X
2
1
3
1
4
7 fr
         
         
         
         
X
1
3
1
2
X
7 fr
         
         
         
         
X
1
3
1
2
4
12 fr
         
         
         
         
1
3
1
1
4
1
         
         
         
         
3
2
4
3 fr
         
         
         
         
1
3
4
2
1
1
         
         
         
         
2
1
3
4
3 fr
         
         
         
         
X
X
3
2
1
1
5 fr
         
         
         
         
X
X
1
3
4
3
7 fr
         
         
         
         
X
4
3
1
2
1

10 fr
         
         
         
         
X
1
2
3
4
X
10 fr
         
         
         
         
X
1
3
3
3
1
12 fr
         
         
         
         
3
2
1
1
1
4
7 fr
         
         
         
         
1
3
4
2
1
1
         
         
         
         
X
2
1
X
3
         
         
         
         
X
1
4
4
4
X
         
         
         
         
X
1
3
3
3
1
4 fr
         
         
         
         
4
3
1
1
1
X
4 fr
         
         
         
         
3
2
1
1
1
4

9 fr
         
         
         
         
X
X
1
3
4
3
11 fr
         
         
         
         
X
4
3
1
2
1

E

variations
3 fr
         
         
         
         
X
4
3
1
2
1
6 fr
         
         
         
         
X
1
2
3
4
1
         
         
         
         
X
X
1
2
4
3
3 fr
         
         
         
         
X
4
3
1
2
X
8 fr
         
         
         
         
4
3
1
1
1
X
8 fr
         
         
         
         
3
2
1
1
1
4

11 fr
         
         
         
         
1
3
4
2
1
1
         
         
         
         
X
X
2
1
1
5 fr
         
         
         
         
X
1
3
1
2
1
5 fr
         
         
         
         
X
1
X
2
4
3
5 fr
         
         
         
         
X
1
3
1
2
4
3 fr
         
         
         
         
X
2
1
3
1
4
10 fr
         
         
         
         
1
3
X
1
4
1

10 fr
         
         
         
         
1
3
1
1
4
1
10 fr
         
         
         
         
1
3
1
1
1
1
12 fr
         
         
         
         
X
X
1
3
2
2
5 fr
         
         
         
         
X
X

Dm/B

         
         
         
         
X
         
         
         
         
X
2
3
1
5 fr
         
         
         
         
1
3
4
1
1
1
5 fr
         
         
         
         
X
X
1
1
1
8 fr
         
         
         
         
X
3
2
4
1
2 fr
         
         
         
         
X
1
4
4
4
7 fr
         
         
         
         
X
1
3
4
2

9 fr
         
         
         
         
X
4
3
1
2
X
12 fr
         
         
         
         
X
1
3
4
2
1
5 fr
         
         
         
         
X
         
         
         
         
X
1
3
4
2
1
7 fr
         
         
         
         
1
3
4
1
1
1
         
         
         
         
X
1
3
4
2
X
7 fr
         
         
         
         
X
X
3
1
1
1
9 fr
         
         
         
         
X
X
1
3
4
2
11 fr
         
         
         
         
X
4
3
1
2
X

Fm

variations
         
         
         
         
1
3
4
1
1
1
4 fr
         
         
         
         
X
X
1
3
4
2
         
         
         
         
X
X
3
1
1
1
9 fr
         
         
         
         
X
1
3
4
2
1
6 fr
         
         
         
         
X
4
3
1
2
X

C

variations
4 fr
         
         
         
         
X
1
2
3
4
1
         
         
         
         
X
4
3
1
2
1
4 fr
         
         
         
         
X
1
4
4
4
X
6 fr
         
         
         
         
4
3
1
1
1
X
6 fr
         
         
         
         
3
2
1
1
1
4
9 fr
         
         
         
         
1
3
4
2
1
1

11 fr
         
         
         
         
X
X
1
3
4
3
         
         
         
         
2
3
1
4 fr
         
         
         
         
X
4
3
1
2
1
7 fr
         
         
         
         
X
1
4
4
4
X
2 fr
         
         
         
         
X
X
1
2
4
3
4 fr
         
         
         
         
4
3
1
2
1
7 fr
         
         
         
         
X
1
3
3
3
1

9 fr
         
         
         
         
4
3
1
1
1
X
9 fr
         
         
         
         
3
2
1
1
1
4
12 fr
         
         
         
         
1
3
4
2
1
1
4 fr
         
         
         
         
X

F

variations
         
         
         
         
1
3
4
2
1
1
         
         
         
         
X
X
3
2
1
1
6 fr
         
         
         
         
X
4
3
1
2
1
4 fr
         
         
         
         
X
X
1
2
4
3
9 fr
         
         
         
         
X
1
3
3
3
1
11 fr
         
         
         
         
4
3
1
1
1
X

11 fr
         
         
         
         
3
2
1
1
1
4

Cm

variations
4 fr
         
         
         
         
X
1
3
4
2
1
9 fr
         
         
         
         
1
3
4
1
1
1
         
         
         
         
X
4
2
1
X
X
         
         
         
         
X
4
3
1
2
X
4 fr
         
         
         
         
X
1
X
X
2
1
11 fr
         
         
         
         
X
X
1
3
4
2

4 fr
         
         
         
         
X
X
No chord
Standard guitar tuning:
E
A
D
G
B
E
No capo

A A D A A D

A A D A D

A A D A A D

Én Aitt vagyok élve eltemetve egy bAetonkoporsóbDan AElpatkolok, de nincsen semmilyen lAift, ami felvisz az éDgig TAöbb a hab már mint a sör, ebbAen a rohadt korsóDban A tAaknyom, a nyálam a rendőrgáztól az Aállamon folyik véDgig Dm ÁFllat vagyok,C ami eDmnni kér Dm EFmber, amiC annyit ér Dm F Mint egy maCgzat a méhDmben Ami Dméppen FelvetélC

A A D A A D

Én itt vagyok élve eltemetve, nyomorék, süket, néma Vak vagyok, aki még így is mindent lát Engem is rabszolgák szültek rabszolgának Nincs mit vesztenem, mitől féljek hát Állat vagyok, ami enni kér...

A

Dm F C Dm

Dm F C

Dm F C Dm

B C

A A D A D

A A D A A D

ANincs élet, nincs álom, Anincs változáDs ANincs kérdés, nincs válasz, Anincs választDás Állat vagyok, ami enni kér Ember, ami annyit ér Mint egy magzat a méhben Ami Béppen elvetél - Céppen elvetél Állat vagyok, ami enni kér... Dm F Éppen eClvetélDm Dm ÉFppen - éppen Celvetél Dm ElvFetél - éppen eClvetélDm B Magzat a méChben

Dm

Tankcsapda - A civilizáció vége Em felbontva:

Em Em Em Em Em7 Em Em Em

Em A G Em A G

EmNézem a TV-ben a hAírekGet Ahogy a rEmendőrök ütik az AírekGet EmBono híába AénekGel Valahogy Emengem mégis AérdekeGl Hogy a szBeretet meg a bFéke Miért csak rEmégi korok emléke SzBeretet meg a bFéke Miért csak rBégi korok emléke lehet

Em A G Em A G

A hatalom erőszak, a média Kizsebel, közben védi A pocakos pióca, pénzért tép szét Mindenki leveszi a részét A disznók híznak a zsírodon Te meg örülsz neki a sírodon Egy kövér angyalka énekel Hülye fasz vagy, ha nem érdekel Ha nincs szeretet, nincs béke Az a civilizáció vége Ha nincs szeretet, nincs béke Az a civilizáció vége lesz

Em

Em D

Em G A

Em D

Em G A

Em

Nézem a TV-ben a híreket Ahogy a rendőrök ütik az íreket Bono híába énekel Hülye fasz vagy, ha nem érdekel Ha nincs szeretet, nincs béke Az a civilizáció vége Szeretet, béke Miért csak rEmégi korok emléke Szeretet, béke Az a civilizáció vége Szeretet, béke Miért csak rBégi korok emléke lehet

Em Em

Tankcsapda - Az ember tervez Felvezető (ehhez dropped-D hangolás szükségeltetik):

Em F Em Dm Em F Em Dm Em F Em Dm Em F Em Dm

Bevezető és átvezető akkordjai (Em D# Dm \) felbontva:

Em Em Em Em Em G G G G E E E E E E F

Dm Dm Dm Dm Dm Dm Dm Dm Dm Dm Dm Dm Dm7 Dm Dm Dm

Versszak kísérete (Dm \):

Dm Dm Dm Dm Dm Dm Dm Dm Dm Dm Dm Dm F Dm F F

[Felvezető]

Em E Dm Em E

Dm

Az Dmember tervez, az isten végez Dm De ebben az életben Ha nDmem vittél még semmit véghez Dm Az nem a véletlen MDműve, hogy a szakadék szélén DmŰlve, semmibe lógó LDmábbal, haragban állsz Dm Az egész világgal

Em E Dm

Az ember tervez, az isten végez Nincs semmilyen véletlen A torkod, ha pengét érez El ne hidd, hogy életlen Fegyver, szarok bele nekem Nem kell, semmilyen törvény Téged, semmi se véd meg Véged, véged Em E Dm Mondom véged Em E Dm Yeah-yeah-yeah-yeah Em E Dm Mondom véged Em E Dm

Dm

Em

Dm

Dm

Az ember tervez, az isten végez Nincs semmilyen véletlen A torkod, ha pengét érez El ne hidd, hogy életlen Fegyver, szarok bele nekem Nem kell, semmilyen törvény Téged, egyik se véd meg Véged, véged Em E Dm Mondom véged Em E

Dm

Tankcsapda - A négy
Bevezető:
  e |---------------|---------------|---------------|---------------|
  H |---------------|---------------|---------------|---------------|
  G |5>7------------|7>5------------|5>4------------|4>2------------|   (x4)
  D |------0--------|------0--------|------0--------|------0-3-0----|
  A |---------------|---------------|---------------|------------3--|
  E |---------------|---------------|---------------|---------------|
Verssszak kíséretének F akkordja:

Dm F F F F F F F

Verssszak kíséretének G akkordja:

F G G G G G G G

A refrén sorainak utolsó két akkordja (Dm \):

C C Dm Dm C C Dm C C C Dm Dm C Dm Dm C

A szóló második sorának két-két akordja (Dm \ \ \):

C C Dm Dm C C Dm C C C Dm Dm C Dm F F

[Bevezető]

Dm Dm/C Dm/B Dm A

Dm Dm/C Dm/B Dm Figyelj! F Én, igen, Én vagyok a Hit BFízz bennem, én nem hagylak itt G Én vagyok a Test, a Lélek Te nGem tudod, de Én benned élek Igen, Én vagyok a Száj Beszélnem, szólnom muszáj Igen, én vagyok a Szem Ha te félsz megtenni, majd én megteszem

Dm Dm/C Dm/B Dm A

Dm Dm/C Dm/B Dm Tudod Én vagyok a Fény, az Árnyék Én vagyok a tükörképed A Teremtő, aki a Saját képére formál téged Igen, én vagyok a Kéz Aki helyetted mindent elintéz Igen, én vagyok az Egy Nélkülem itt semmi nem megy F Apám a FöCld, anyám az ÉDmg F Engem sCenki nem látoDmtt még F Apám a VíCz, anyám az TűDmz F Ez a Négy, ami TCéged Velem Aörökre összefűz

Dm Dm/C Dm/B Dm A

Dm Dm/C Dm/B Dm Tudom Én vagyok az álmod éjjel Az ereidben a Vér A Sötétség és a Fény, de neked Tudnod kell, melyik mennyit ér Én vagyok az ismeretlen Aki akar, úgyis megtalál És én majd vigyázok rád Ha az egész világ lángokban áll Apám a Föld, anyám az Ég Engem senki nem látott még Apám a Víz, anyám az Tűz F Ez a Négy, ami miCnket összefűDmz

Dm

G

Dm

G

F G

Dm Dm/C Dm/B Dm A

Dm Dm/C Dm/B Dm

Apám a Föld, anyám az Ég...

Dm

Tankcsapda - A négy
Bevezető:
  e |---------------|---------------|---------------|---------------|
  H |---------------|---------------|---------------|---------------|
  G |5>7------------|7>5------------|5>4------------|4>2------------|   (x4)
  D |------0--------|------0--------|------0--------|------0-3-0----|
  A |---------------|---------------|---------------|------------3--|
  E |---------------|---------------|---------------|---------------|
Verssszak kíséretének F akkordja:

Dm F F F F F F F

Verssszak kíséretének G akkordja:

F G G G G G G G

A refrén sorainak utolsó két akkordja (Dm \):

C C Dm Dm C C Dm C C C Dm Dm C Dm Dm C

A szóló második sorának két-két akordja (Dm \ \ \):

C C Dm Dm C C Dm C C C Dm Dm C Dm F F

[Bevezető]

Dm Dm/C Dm/B Dm A

Dm Dm/C Dm/B Dm Figyelj! F Én, igen, Én vagyok a Hit BFízz bennem, én nem hagylak itt G Én vagyok a Test, a Lélek Te nGem tudod, de Én benned élek Igen, Én vagyok a Száj Beszélnem, szólnom muszáj Igen, én vagyok a Szem Ha te félsz megtenni, majd én megteszem

Dm Dm/C Dm/B Dm A

Dm Dm/C Dm/B Dm Tudod Én vagyok a Fény, az Árnyék Én vagyok a tükörképed A Teremtő, aki a Saját képére formál téged Igen, én vagyok a Kéz Aki helyetted mindent elintéz Igen, én vagyok az Egy Nélkülem itt semmi nem megy F Apám a FöCld, anyám az ÉDmg F Engem sCenki nem látoDmtt még F Apám a VíCz, anyám az TűDmz F Ez a Négy, ami TCéged Velem Aörökre összefűz

Dm Dm/C Dm/B Dm A

Dm Dm/C Dm/B Dm Tudom Én vagyok az álmod éjjel Az ereidben a Vér A Sötétség és a Fény, de neked Tudnod kell, melyik mennyit ér Én vagyok az ismeretlen Aki akar, úgyis megtalál És én majd vigyázok rád Ha az egész világ lángokban áll Apám a Föld, anyám az Ég Engem senki nem látott még Apám a Víz, anyám az Tűz F Ez a Négy, ami miCnket összefűDmz

Dm

G

Dm

G

F G

Dm Dm/C Dm/B Dm A

Dm Dm/C Dm/B Dm

Apám a Föld, anyám az Ég...

Dm

Tankcsapda - Rock and Rollnak hívott

Em Em G Em Em G

Em Em G Em D D G

Az Emistenek erejét Emérzem vGégigfEmutni az erembEmen G Pedig csak egy csEmapdába csalt Emállat vagyGok, vergEmődök a verembeDn D G VEmárom, hogy a pEmoharat Gelém raEmkja az a vörös nEmő G Aztán, ha mEmegittam minden, szEmívok, vGan még nEmálam egy darab kDő TCúl gyorsan jCön a golyóEm D Ezen a szEmar gépen megint ragad a kar HCiába minden, mCa éjszakEma márD SEmenki nincs, aki eDngem akDarG Az istenek erejét érzem végigfutni az eremben Pedig csak egy csapdába csalt állat vagyok, vergődök a veremben Látod a szemeim vérben, én meg az időben meg a térben Száguldoztam magamban, amíg magamhoz nem térten De így sem érzem jobban magam És úgy se voltam rosszul Az utolsó golyót játszom De ez a jEmáték nem túl hGosszDú EmNem akarok sGemmiDt, csak rEmepülni amíg lGehetD EmNem akarok sGemmiDt, Cnem keresem a bajt EmNem akarok sGemmiDt, csak Emegyütt lenni veleGd D És jEmátszani ezt a rDock and rollnak hDívGott szEmart Em G Em Em G Em Em GEzt a rEmock and rollnak hívott szart Túl gyorsan jön a golyó... Nem akarok semmit, csak repülni amíg lehet Nem akarok semmit, nem keresem a bajt Nem akarok semmit, csak együtt lenni veled És jCátszani ezt a rDock and rollnak hívott szEmartD Em Tankcsapda - Lopott könyvek
Bevezető:
  e |------0--------|----0----------|---------------|---------------|
  H |----0----------|------0--------|----3----------|---------------|
  G |---0-----------|---0-----------|---2--2-------222--------------|
  D |2--------------|2--------------|0-------------000--------------|
  A |---------------|---------------|---------------|---------------|
  E |---------------|---------------|---------------|---------------|

Em D

LEmopok neked egy könyvet, a lapjait teleírom VDérrel verítékkel, valahogy még kibírom De aztán Emelmegyek innen messzes, hogy többé ne is láss LDopjon könyvet, írja a könnyeivel bele valaki más

Em D

Lopok neked egy könyvet, a lapjait teleírom A festék ha megszárad a kifakult papíron Akkor elmegyek innen véglek, magammal viszlek téged Oda, ahol többé soha senki el nem érhet TCudom, hogy hagynád, én addig szeretnélek

Em D

AmíG mozogsz, AmíG van benned élet A vCéredben fürödnék, átvágnám a torkod NEméznél rám, de nem értenéd a doDlgot Lopok neked egy könyvet, a lapjait teleírom A képeket kitépem, rajta lesznek a síron Amit kettőnknek ások úgy, hogy ne lássák mások Mikor a szemedbe nézek, szúrok, aztán magammal végzek Tudom, hogy hagynád, én addig szeretnélek Amíg látnám, hogy van még benned élet A véredben fürödnék, átvágnám a torkod Néznél rám, de nem értenéd a dolgot

Em D Em Em Em D Em Em

D C D D D C D D

Em D Em Em Em D Em Em

D C D D D C D D

Em D

Tankcsapda - Legyen köztünk híd

Em Em G

EmNem elég, hogy az Emélet G MEmegnyomorított tEméged G EmNem elég, hogy az Emálom G EmNem jön, hEmiába vGárom Nem elég ez a test nekem Nem elég ez lélek Nem elég, hogy megszülettem Még mindig élek CNem elég, nekem nem elCégG, Emnem,Em neGm, Emnem,Em neGm CNem elég, nekem nem elCégG Em Em G Em Em G Nem elég a kezdet Nem eléG AG Nem elég, hogy a talpamon állok Maradnom is kell még Én vagyok az ember Te az álomkép Egyikünknek el tünnie Innen mindenképp CNem elég, nekem nem elCégG, Emnem,Em neGm, Emnem,Em neGm CNem elég, nekem nem elég, ha kAmell én mindent lBmeteszek eléd Valahogy élek Valamit látok Attól félek Fog rajtam az átok Adj, ha kérek Gyere, ha várok Legyen köztünk híd Ne csak az árok

Em Em G

Nem elég, hogy az élet... Nem elég ez a test nekem... Nem elég, nekem nem elég, nem, nem, nem, nem Nem elég, nekem nem elég, ha kell én mindent leteszek eléd Valahogy élek... Adj, ha kérek... (x3)

Em Em G

Tankcsapda - Legyen köztünk híd

Em Em G

EmNem elég, hogy az Emélet G MEmegnyomorított tEméged G EmNem elég, hogy az Emálom G EmNem jön, hEmiába vGárom Nem elég ez a test nekem Nem elég ez lélek Nem elég, hogy megszülettem Még mindig élek CNem elég, nekem nem elCégG, Emnem,Em neGm, Emnem,Em neGm CNem elég, nekem nem elCégG Em Em G Em Em G Nem elég a kezdet Nem eléG AG Nem elég, hogy a talpamon állok Maradnom is kell még Én vagyok az ember Te az álomkép Egyikünknek el tünnie Innen mindenképp CNem elég, nekem nem elCégG, Emnem,Em neGm, Emnem,Em neGm CNem elég, nekem nem elég, ha kAmell én mindent lBmeteszek eléd Valahogy élek Valamit látok Attól félek Fog rajtam az átok Adj, ha kérek Gyere, ha várok Legyen köztünk híd Ne csak az árok

Em Em G

Nem elég, hogy az élet... Nem elég ez a test nekem... Nem elég, nekem nem elég, nem, nem, nem, nem Nem elég, nekem nem elég, ha kell én mindent leteszek eléd Valahogy élek... Adj, ha kérek... (x3)

Em Em G

Tankcsapda - Szemétre való

Fm Fm Fm Bm Fm Fm Fm D

FmKapot a lapot,Fm várom a nFmapotBm FmLassan jön fel az éFmgen Fm D FmJön-megy a pénz,Fm remeg a kFméz Bm Fm Én itt ülök elég réFmgen Fm D Ahhoz, hogy lássam, hogy el kell, hogy ássam A gyengébbik énem Ha A siker A Cél, ha A hited A Cél Nekem is el kell érnem A hajnali járat lesz a vészkijárat Ami elvezet erről a helyről A falon a kép, és te valaképp Már hallottál is erről a fejről Én meg csak tátom a szám, elég kerek a szám Amit kifizetnének értem Annyi az üldöző, mintha bűnöző lennék Ezt én se értem NBmincs minden hiBmábaEm De Bmugyanabba a hibáBmba Em Bm Ne ess bele kéBmtszerEm Mert rBmávisz újra a kényszer MFmilyen viláFmg az Fm Bm Amit mFmás jobban nem jFmellemeFmz D Mint egy dFmal, egy szFmar Fm Bm Egy szFmemétre való, miFmnt mondjuk eFmz D

Fm Fm Fm Bm Fm Fm Fm D

Kapot a lapot, várom a napot... Ahhoz, hogy lássam, hogy el kell, hogy ássam... Nincs minden hiába... Milyen világ az...

Fm Fm Fm Bm Fm Fm Fm D

Bm Bm Em Bm Bm Em Bm C Em Bm

Fm Fm Fm Bm Fm Fm Fm D

Fm Fm Fm Bm Fm Fm D D

Milyen világ az... Egy dFmal, egy szFmar Fm Bm Egy szFmemétre való D A Fm Tankcsapda - Így lettél
Átvezető:
  e |---------------|
  H |---------------|
  G |---------------|
  D |---------------|
  A |---------------|

E |0-3-2-1-0-3-2-1|

[Átvezető] [Átvezető] [Átvezető] [Átvezető] (x2)

Am Dm C Dm Am Dm C Dm

DAmélben fDmel,C Dm kAmávé kDmellC Dm FAmelhúrDmozvCa Dm úDmjra KAméne méDmg, C Dm nAmincs eléDmg C Dm Régi Amagyat cserDméleCk Dm úAmjra Dm C Dm SFemmi gáz, ha vGan pipázz NAme félj neDmm C tDmévedAmtél Dm C Dm A kFívül szar is lehet bGelül jó HAma már íDmgy leCttélAm [Átvezető] [Átvezető] [Átvezető] [Átvezető] (x2) Szeress jól, hiányzol Nagyon jó ha látlak Ez sebesség, de a vége Hamarabb jön el mint az átlag SFemmi gáz, ha vGan pipázz NAme félj neDmm C tDmévedAmtél Dm C Dm A kFívül szar is lehet bGelül jó HAma már íDmgy leCttélAm Am G Am Tankcsapda - Egyszerű dal

Em G D C Em G D C

Em G D C Em G D C

Néha Emúgy hiáGnyzik a mDarihuáGna Mint a hEmercegnGőnek a DDon JuaGn Ha az EmerkélyrGől, a szDemébe nGéz VEmonzzaG, mint méDhet a méGz Meg az a srác, akit már te is láttál És tudtam jól, utálja magát De mégsem hittem volna, hogy a végén Előveszi a pisztolyát Ez csak egy Cegyszerű dal, semmiDt nem akar Néha Emilyen is keGll D G Ez csak egy Cegyszerű dal, semmiDt nem akar De Emennél többet nDem árulhatok eCl Valami szomorú dallam hangja halkan Kísértenek éjszakákon át Velem vannak és együtt Dúdolgatjuk a halál dalát Hogy ez a szerelem nekem nem a május Én örülök, ha valahogy túlélem A szerelem csak egy rohadt mágus Ha elkapom úgyis kiherélem Ez csak egy egyszerű dal...

Em G D C Em G D C

Szóló (tab: Athos):
E----------------------------------------------------
H----------------------------------------------------
G----------------------------------------------------
D----------------------------------------------------
A-5/7-5-/0---0p2h0--------------2---2-2-2-2-2h0------
E----------3-------3---0-3-0-0p3-0p3------------3-3--
Repülőgépek, óceánok A füvek, a fák, a mezők, a virágok A különös álmok, amiket látok Ha egyszer éjjel hiába vártok Ez csak egy egyszerű dal... (+ C B G F E) Tankcsapda - A R&R rugója
Bevezető (x2) és az első két versszak kísérete:
  e |---------------|---------------|---------------|---------------|
  H |---------------|---------------|---------------|---------------|
  G |---------------|---------------|---------------|---------------|
  D |--0-----0-----0|--0-----0-----0|--0-----0-----0|----0-----0----|
  A |----2-----2----|----2-----2----|----4-----4----|4-----4-----4--|
  E |0-----0-----0--|3-----3-----3--|5-----5-----5--|--5-----5-----5|
Mekkora bálvány, előtte az álvány Fogja a mikrofonját Remeg a drága, az alsónadrág A sarokba dobva rég Jó ez a lány, semmiben nincs hiány Gyere, a karjaiddal fonj át Meleg a nyála, jó vagyok nála Pedig nagyon korcs keverék Nyitva az Emajtó, bennem a hGajtómű A fAordulatszámot eléCrte D Mondom a hEmelyet, de most a mGúltoki helyett MAáshova menj el éCrte D Aztán a cuccot hozd el, de rendesen oszd el A szemetet ne én szívjam Befogom a szám, csak mond a számot Ha kell máskor is hívjam Ne félj, a tEmorta meg lesz fBműszerezve Csak lAegyen hozzá elég fű szerezve EmHiába moBmndanék neked mCást D Mekkora bálvány... Nagyon léha, valami lé, Ha néha lecsúszik a torkán És úgy ragad magával Mint a legpusztitóbb orkán A torta meg lesz fűszerezve... EmHidd el, én neGm tehetek róla AÍgy rakott le az a nyComorult gDólya EmHidd el, én neGm tehetek róla SzBmétfeszCít belAül a rGock & roll rGugEmója

Em

A

C D

EmHidd el, én neGm tehetek róla AÍgy rakott le az a nyComorult gDólya EmHidd el, én neGm tehetek róla SzAétfeszít a rock & rColl rugóDja EmHidd el, én neGm tehetek róla AÍgy rakott le az a nyComorult gDólya EmHidd el, én neGm tehetek róla SzBmétfeszCít belAül a rGock & roll SzBmétfeszCít belAül a rGock & roll rGugEmója Tankcsapda - Szenvedj

D Cm

LDement az utcára, nagyon egyedül vCmolt SDenkit nem kapott már régen Cm TDele volt, mint egy csőre töltött cCmolt Aztán Degyedül élvezett fenn az égen Cm És most Bmitt áll, nCem érdeDkli, Hogy iBmttál, nCem akar tDudni róBmla, Hogy vCan-e alaDttad CorBmolla Hogy vCan-e még bDenned éAlet A bBecsület, mCond, kiAé lett MBennyit aCdnának Aérted Hülye vBagy, az aClmát te kAérted Hát most Bitt az Cideje D SzenCmvedj D Cm Nyitom az ajtót, belép egy jó kis luk Remélem szívós fajta Nekem is jól jönne most egy-két slukk Hogy könnyebben legyek túl rajta És most itt áll, nem érdekli Hogy itt áll előtte egy akkora fallosz Ami ha odanyomná a falhoz Izzana tőle a vére Ugyanolyan mint a nővére Odaenged magához Mint az őz a szarvasbikához jön Ha eljön az ideje

Cm

Kap olyat, hogy szCmétmegy Elveszi az eszCmét egy Csikk hófehCmér por Vagy valami szemCmét almabor És most itt áll, nem érdekli, hogy ittál... Tankcsapda Mikor A SráC Tankológia, Az Ember Tervez
|--------------------------------|--------------------------------|
|--------------------------------|--------------------------------|
|-----0----0-----0-----0-4-0---0-|-----0----0-----0-----0-4-0---0-|
|---0----0-----0-----0-------0---|---0----0-----0-----0-------0---|
|--------------------------------|--------------------------------|
|-3-----5----1-----1-------------|-3-----5----1-----1-------------|
|--------------------------------|--------------------------------|
|--------------------------------|--------------------------------|
|-----0----0-----0-----0-4-0---0-|-----0----0-----0-----0-4-0---0-|
|---0----0-----0-----0-------0---|---0----0-----0-----0-------0---|
|--------------------------------|--------------------------------|
|-3-----5----1-----1-------------|-3-----5----1-----1-------------|
|--------------------------------|--------------------------------|
|--------------------------------|--------------------------------|
|--------------------------------|--------------------------------|
|-5/7-7-7-7\5\3--7---------------|-5/7-7-7-7\5\3--7---------------|
|-5/7-7-7-7\5\3--5---------------|-5/7-7-7-7\5\3--5---------------|
|-3/5-5-5-5\3\1--3---------------|-3/5-5-5-5\3\1--3---------------|
|--------------------------------|--------------------------------|
|--------------------------------|--------------------------------|
|--------------------------------|--------------------------------|
|-5/7-7-7-7\5\3--7---------------|-5/7-7-7-7\5\3--7---------------|
|-5/7-7-7-7\5\3--5---------------|-5/7-7-7-7\5\3--5---------------|
|-3/5-5-5-5\3\1--3---------------|-3/5-5-5-5\3\1--3---------------|
|--------------------------------|--------------------------------|
|--------------------------------|--------------------------------|
|--------------------------------|--------------------------------|
|-7----------7--x-x-x10-12-12-12-|-12---------12--------x-5----5--|
|-7----------7--x-x-x10-12-12-12-|-12---------12--------x-5----5--|
|-5----------5--x-x-x-8-10-10-10-|-10---------10--------x-3----3--|
|--------------------------------|--------------------------------|
|--------------------------------|--------------------------------|
|--------------------------------|--------------------------------|
|-7----7--7--7---7-----7--7--7---|-7----7--7--7---7-----7--7--7---|
|-7----7--7--7---7-----7--7--7---|-7----7--7--7---7-----7--7--7---|
|-5----5--5--5---5-----5--5--5---|-5----5--5--5---5-----5--5--5---|
|--------------------------------|--------------------------12~---|
|--------------------------------|----------------------10--------|
|--------------------------------|--------------------------------|
|-7----7--7--7---7-----7--7--7---|12----------12------------------|
|-7----7--7--7---7-----7--7--7---|12----------12------------------|
|-5----5--5--5---5-----5--5--5---|10----------10------------------|
|--------------------------------|--------------------------------|
|--------------------------------|--------------------------------|
|--------------------------------|--------------------------------|
|-7----7--7--7---7-----7--7--7---|-7----7--7--7---7-----7--7--7---|
|-7----7--7--7---7-----7--7--7---|-7----7--7--7---7-----7--7--7---|
|-5----5--5--5---5-----5--5--5---|-5----5--5--5---5-----5--5--5---|
|--------------------------------|--------------------------12~---|
|--------------------------------|-----------------------10-------|
|--------------------------------|--------------------------------|
|-7----7--7--7---7-----7--7--7---|12----------12------------------|
|-7----7--7--7---7-----7--7--7---|12----------12------------------|
|-5----5--5--5---5-----5--5--5---|10----------10------------------|
|--------------------------------|--------------------------12~---|
|--------------------------------|-----------------------10-------|
|--------------------------------|--------------------------------|
|-7----7--7--7---7-----7--7--7---|12----------12------------------|
|-7----7--7--7---7-----7--7--7---|12----------12------------------|
|-5----5--5--5---5-----5--5--5---|10----------10------------------|
|--------------------------------|--------------------------------|
|--------------------------------|--------------------------------|
|--------------------------------|--------------------------------|
|-3------------3--x-x-x-7---2--3-|-3------------3--x-x-x-7---2--3-|
|-3------------3--x-x-x-7---2--3-|-3------------3--x-x-x-7---2--3-|
|-1------------1--x-x-x-5---0--1-|-1------------1--x-x-x-5---0--1-|
|--------------------------------|--------------------------------|
|--------------------------------|--------------------------------|
|--------------------------------|--------------------------------|
|-3------------3--x-x-x-7---2--3-|-2------------2----2-2-2---2-2--|
|-3------------3--x-x-x-7---2--3-|-2------------2----2-2-2---2-2--|
|-1------------1--x-x-x-5---0--1-|-0------------0----0-0-0---0-0--|
|--------------------------------|--------------------------------|
|--------------------------------|--------------------------------|
|--------------------------------|--------------------------------|
|-7-----7------7--------7-----7--|-3---------3-3-12----12-12-12-12|
|-7-----7------7--------7-----7--|-3---------3-3-12----12-12-12-12|
|-5-----5------5--------5-----5--|-1---------1-1-10----10-10-10-10|
|--------------------------------|--------------------------------|
|--------------------------------|--------------------------------|
|--------------------------------|--------------------------------|
|-7-----7------7--------7-----7--|-3---------3-3-12----12-12-12-12|
|-7-----7------7--------7-----7--|-3---------3-3-12----12-12-12-12|
|-5-----5------5--------5-----5--|-1---------1-1-10----10-10-10-10|
|--------------------------------|--------------------------------|
|--------------------------------|--------------------------------|
|--------------------------------|--------------------------------|
|-7-----7------7--------7-----7--|-3---------3-3-12----12-12-12-12|
|-7-----7------7--------7-----7--|-3---------3-3-12----12-12-12-12|
|-5-----5------5--------5-----5--|-1---------1-1-10----10-10-10-10|
|--------------------------------|--------------------------------|
|--------------------------------|--------------------------------|
|--------------------------------|--------------------------------|
|-7-----7------7--------7-----7--|-3---------3-3-12----12-12-12-12|
|-7-----7------7--------7-----7--|-3---------3-3-12----12-12-12-12|
|-5-----5------5--------5-----5--|-1---------1-1-10----10-10-10-10|
|--------------------------------|--------------------------------|
|--------------------------------|--------------------------------|
|--------------------------------|--------------------------------|
|-5/7-7-7-7\5\3--7---------------|-5/7-7-7-7\5\3--7---------------|
|-5/7-7-7-7\5\3--5---------------|-5/7-7-7-7\5\3--5---------------|
|-3/5-5-5-5\3\1--3---------------|-3/5-5-5-5\3\1--3---------------|
|--------------------------------|--------------------------------|
|--------------------------------|--------------------------------|
|--------------------------------|--------------------------------|
|-5/7-7-7-7\5\3--7---------------|-5/7-7-7-7\5\3--7---------------|
|-5/7-7-7-7\5\3--5---------------|-5/7-7-7-7\5\3--5---------------|
|-3/5-5-5-5\3\1--3---------------|-3/5-5-5-5\3\1--3---------------|
|--------------------------------|--------------------------------|
|--------------------------------|--------------------------------|
|--------------------------------|--------------------------------|
|-7----7--7--7---7-----7--7--7---|-7----7--7--7---7-----7--7--7---|
|-7----7--7--7---7-----7--7--7---|-7----7--7--7---7-----7--7--7---|
|-5----5--5--5---5-----5--5--5---|-5----5--5--5---5-----5--5--5---|
|--------------------------------|--------------------------10~---|
|--------------------------------|-----------------------8--------|
|--------------------------------|--------------------------------|
|-7----7--7--7---7-----7--7--7---|10----------10------------------|
|-7----7--7--7---7-----7--7--7---|10----------10------------------|
|-5----5--5--5---5-----5--5--5---|-8-----------8------------------|
|--------------------------------|--------------------------------|
|--------------------------------|--------------------------------|
|--------------------------------|--------------------------------|
|-7----7--7--7---7-----7--7--7---|-7----7--7--7---7-----7--7--7---|
|-7----7--7--7---7-----7--7--7---|-7----7--7--7---7-----7--7--7---|
|-5----5--5--5---5-----5--5--5---|-5----5--5--5---5-----5--5--5---|
|--------------------------------|--------------------------12~---|
|--------------------------------|-----------------------10-------|
|--------------------------------|--------------------------------|
|-7----7--7--7---7-----7--7--7---|12----------12------------------|
|-7----7--7--7---7-----7--7--7---|12----------12------------------|
|-5----5--5--5---5-----5--5--5---|10----------10------------------|
|--------------------------------|--------------------------12~---|
|--------------------------------|-----------------------10-------|
|--------------------------------|--------------------------------|
|-7----7--7--7---7-----7--7--7---|12----------12------------------|
|-7----7--7--7---7-----7--7--7---|12----------12------------------|
|-5----5--5--5---5-----5--5--5---|10----------10------------------|
|--------------------------------|--------------------------------|
|--------------------------------|--------------------------------|
|--------------------------------|--------------------------------|
|-3------------3--x-x-x-7---2--3-|-3------------3--x-x-x-7---2--3-|
|-3------------3--x-x-x-7---2--3-|-3------------3--x-x-x-7---2--3-|
|-1------------1--x-x-x-5---0--1-|-1------------1--x-x-x-5---0--1-|
|--------------------------------|--------------------------------|
|--------------------------------|--------------------------------|
|--------------------------------|--------------------------------|
|-3------------3--x-x-x-7---2--3-|-2------------2----2-2-2---2-2--|
|-3------------3--x-x-x-7---2--3-|-2------------2----2-2-2---2-2--|
|-1------------1--x-x-x-5---0--1-|-0------------0----0-0-0---0-0--|
|--------------------------------|--------------------------------|
|--------------------------------|--------------------------------|
|--------------------------------|--------------------------------|
|-7-----7------7--------7-----7--|-3---------3-3-12----12-12-12-12|
|-7-----7------7--------7-----7--|-3---------3-3-12----12-12-12-12|
|-5-----5------5--------5-----5--|-1---------1-1-10----10-10-10-10|
|--------------------------------|--------------------------------|
|--------------------------------|--------------------------------|
|--------------------------------|--------------------------------|
|-7-----7------7--------7-----7--|-3---------3-3-12----12-12-12-12|
|-7-----7------7--------7-----7--|-3---------3-3-12----12-12-12-12|
|-5-----5------5--------5-----5--|-1---------1-1-10----10-10-10-10|
|--------------------------------|--------------------------------|
|--------------------------------|--------------------------------|
|--------------------------------|--------------------------------|
|-7-----7------7--------7-----7--|-3---------3-3-12----12-12-12-12|
|-7-----7------7--------7-----7--|-3---------3-3-12----12-12-12-12|
|-5-----5------5--------5-----5--|-1---------1-1-10----10-10-10-10|
|--------------------------------|--------------------------------|
|--------------------------------|--------------------------------|
|--------------------------------|--------------------------------|
|-7-----7------7--------7-----7--|-3---------3-3-12----12-12-12-12|
|-7-----7------7--------7-----7--|-3---------3-3-12----12-12-12-12|
|-5-----5------5--------5-----5--|-1---------1-1-10----10-10-10-10|
|--------------------------------|--------------------------------|
|--------------------------------|--------------------------------|
|-2---------2--------------------|-2------------------------------|
|--------------------------------|----------2~-2~-----------------|
|--------------------------------|------0-------------------------|
|--------------------------------|--------------------------------|
|--------------------------------|--------------------------------|
|--------------------------------|-----1~-1~------1~-1~---------3~|
|-2------------------------------|-----2--2-------2--2------------|
|-----------2~-2~--2--------2----|--------------------------------|
|-------0--------------0---------|-0----------0---------0--3--0---|
|------------------------------3-|--------------------------------|
|--------------------------------|-12-----10-12~-12~-10-12~-10-5--|
|--------1-----------------------|--------------------------------|
|-----------2---2~---------------|--------------------------------|
|--------------------------------|--------------------------------|
|--------------------------------|--------------------------------|
|--------------------------------|--------------------------------|
|7--8--10-10\5--10~----5---------|------------23-19-19-21-23-19-21|
|--------------------------------|--------------------------------|
|--------------------------------|--------------------------------|
|--------------------------------|--------------------------------|
|------------------------0-0-0-3-|3-0-5-0-5\0---------------------|
|--------------------------------|--------------------------------|
|23-19-21-23-19-21-23-19-15----12|12--10--8--7--10--7--8-7-10~----|
|--------------------------------|--------------------------------|
|--------------------------------|--------------------------------|
|--------------------------------|--------------------------------|
|--------------------------------|--------------------------------|
|--------------------------------|--------------------------------|
|--------------------------------|--------------------------------|
|--------------------------------|--------------------------------|
|--------------------------------|--------------------------------|
|-3------------3--x-x-x-7---2--3-|-3------------3--x-x-x-7---2--3-|
|-3------------3--x-x-x-7---2--3-|-3------------3--x-x-x-7---2--3-|
|-1------------1--x-x-x-5---0--1-|-1------------1--x-x-x-5---0--1-|
|--------------------------------|--------------------------------|
|--------------------------------|--------------------------------|
|--------------------------------|--------------------------------|
|-3------------3--x-x-x-7---2--3-|-2------------2----2-2-2---2-2--|
|-3------------3--x-x-x-7---2--3-|-2------------2----2-2-2---2-2--|
|-1------------1--x-x-x-5---0--1-|-0------------0----0-0-0---0-0--|
|--------------------------------|--------------------------------|
|--------------------------------|--------------------------------|
|--------------------------------|--------------------------------|
|-7-----7------7--------7-----7--|-3---------3-3-12----12-12-12-12|
|-7-----7------7--------7-----7--|-3---------3-3-12----12-12-12-12|
|-5-----5------5--------5-----5--|-1---------1-1-10----10-10-10-10|
|--------------------------------|--------------------------------|
|--------------------------------|--------------------------------|
|--------------------------------|--------------------------------|
|-7-----7------7--------7-----7--|-3---------3-3-12----12-12-12-12|
|-7-----7------7--------7-----7--|-3---------3-3-12----12-12-12-12|
|-5-----5------5--------5-----5--|-1---------1-1-10----10-10-10-10|
|--------------------------------|--------------------------------|
|--------------------------------|--------------------------------|
|--------------------------------|--------------------------------|
|-5------7-----------------------|--------------------------------|
|-5------7-----------------------|--------------------------------|
|-3------5-----------------------|--------------------------------|
Leírta: Szerepi Bálint TELJESEN Jó! 100 %... Olyan formában van direkt leírva, hogy tab-szerkesztőkkel is meg tudd nyitni... Sok Sikert... :)Tankcsapda Mikor A SráC Tankológia, Az Ember Tervez
|--------------------------------|--------------------------------|
|--------------------------------|--------------------------------|
|-----0----0-----0-----0-4-0---0-|-----0----0-----0-----0-4-0---0-|
|---0----0-----0-----0-------0---|---0----0-----0-----0-------0---|
|--------------------------------|--------------------------------|
|-3-----5----1-----1-------------|-3-----5----1-----1-------------|
|--------------------------------|--------------------------------|
|--------------------------------|--------------------------------|
|-----0----0-----0-----0-4-0---0-|-----0----0-----0-----0-4-0---0-|
|---0----0-----0-----0-------0---|---0----0-----0-----0-------0---|
|--------------------------------|--------------------------------|
|-3-----5----1-----1-------------|-3-----5----1-----1-------------|
|--------------------------------|--------------------------------|
|--------------------------------|--------------------------------|
|--------------------------------|--------------------------------|
|-5/7-7-7-7\5\3--7---------------|-5/7-7-7-7\5\3--7---------------|
|-5/7-7-7-7\5\3--5---------------|-5/7-7-7-7\5\3--5---------------|
|-3/5-5-5-5\3\1--3---------------|-3/5-5-5-5\3\1--3---------------|
|--------------------------------|--------------------------------|
|--------------------------------|--------------------------------|
|--------------------------------|--------------------------------|
|-5/7-7-7-7\5\3--7---------------|-5/7-7-7-7\5\3--7---------------|
|-5/7-7-7-7\5\3--5---------------|-5/7-7-7-7\5\3--5---------------|
|-3/5-5-5-5\3\1--3---------------|-3/5-5-5-5\3\1--3---------------|
|--------------------------------|--------------------------------|
|--------------------------------|--------------------------------|
|--------------------------------|--------------------------------|
|-7----------7--x-x-x10-12-12-12-|-12---------12--------x-5----5--|
|-7----------7--x-x-x10-12-12-12-|-12---------12--------x-5----5--|
|-5----------5--x-x-x-8-10-10-10-|-10---------10--------x-3----3--|
|--------------------------------|--------------------------------|
|--------------------------------|--------------------------------|
|--------------------------------|--------------------------------|
|-7----7--7--7---7-----7--7--7---|-7----7--7--7---7-----7--7--7---|
|-7----7--7--7---7-----7--7--7---|-7----7--7--7---7-----7--7--7---|
|-5----5--5--5---5-----5--5--5---|-5----5--5--5---5-----5--5--5---|
|--------------------------------|--------------------------12~---|
|--------------------------------|----------------------10--------|
|--------------------------------|--------------------------------|
|-7----7--7--7---7-----7--7--7---|12----------12------------------|
|-7----7--7--7---7-----7--7--7---|12----------12------------------|
|-5----5--5--5---5-----5--5--5---|10----------10------------------|
|--------------------------------|--------------------------------|
|--------------------------------|--------------------------------|
|--------------------------------|--------------------------------|
|-7----7--7--7---7-----7--7--7---|-7----7--7--7---7-----7--7--7---|
|-7----7--7--7---7-----7--7--7---|-7----7--7--7---7-----7--7--7---|
|-5----5--5--5---5-----5--5--5---|-5----5--5--5---5-----5--5--5---|
|--------------------------------|--------------------------12~---|
|--------------------------------|-----------------------10-------|
|--------------------------------|--------------------------------|
|-7----7--7--7---7-----7--7--7---|12----------12------------------|
|-7----7--7--7---7-----7--7--7---|12----------12------------------|
|-5----5--5--5---5-----5--5--5---|10----------10------------------|
|--------------------------------|--------------------------12~---|
|--------------------------------|-----------------------10-------|
|--------------------------------|--------------------------------|
|-7----7--7--7---7-----7--7--7---|12----------12------------------|
|-7----7--7--7---7-----7--7--7---|12----------12------------------|
|-5----5--5--5---5-----5--5--5---|10----------10------------------|
|--------------------------------|--------------------------------|
|--------------------------------|--------------------------------|
|--------------------------------|--------------------------------|
|-3------------3--x-x-x-7---2--3-|-3------------3--x-x-x-7---2--3-|
|-3------------3--x-x-x-7---2--3-|-3------------3--x-x-x-7---2--3-|
|-1------------1--x-x-x-5---0--1-|-1------------1--x-x-x-5---0--1-|
|--------------------------------|--------------------------------|
|--------------------------------|--------------------------------|
|--------------------------------|--------------------------------|
|-3------------3--x-x-x-7---2--3-|-2------------2----2-2-2---2-2--|
|-3------------3--x-x-x-7---2--3-|-2------------2----2-2-2---2-2--|
|-1------------1--x-x-x-5---0--1-|-0------------0----0-0-0---0-0--|
|--------------------------------|--------------------------------|
|--------------------------------|--------------------------------|
|--------------------------------|--------------------------------|
|-7-----7------7--------7-----7--|-3---------3-3-12----12-12-12-12|
|-7-----7------7--------7-----7--|-3---------3-3-12----12-12-12-12|
|-5-----5------5--------5-----5--|-1---------1-1-10----10-10-10-10|
|--------------------------------|--------------------------------|
|--------------------------------|--------------------------------|
|--------------------------------|--------------------------------|
|-7-----7------7--------7-----7--|-3---------3-3-12----12-12-12-12|
|-7-----7------7--------7-----7--|-3---------3-3-12----12-12-12-12|
|-5-----5------5--------5-----5--|-1---------1-1-10----10-10-10-10|
|--------------------------------|--------------------------------|
|--------------------------------|--------------------------------|
|--------------------------------|--------------------------------|
|-7-----7------7--------7-----7--|-3---------3-3-12----12-12-12-12|
|-7-----7------7--------7-----7--|-3---------3-3-12----12-12-12-12|
|-5-----5------5--------5-----5--|-1---------1-1-10----10-10-10-10|
|--------------------------------|--------------------------------|
|--------------------------------|--------------------------------|
|--------------------------------|--------------------------------|
|-7-----7------7--------7-----7--|-3---------3-3-12----12-12-12-12|
|-7-----7------7--------7-----7--|-3---------3-3-12----12-12-12-12|
|-5-----5------5--------5-----5--|-1---------1-1-10----10-10-10-10|
|--------------------------------|--------------------------------|
|--------------------------------|--------------------------------|
|--------------------------------|--------------------------------|
|-5/7-7-7-7\5\3--7---------------|-5/7-7-7-7\5\3--7---------------|
|-5/7-7-7-7\5\3--5---------------|-5/7-7-7-7\5\3--5---------------|
|-3/5-5-5-5\3\1--3---------------|-3/5-5-5-5\3\1--3---------------|
|--------------------------------|--------------------------------|
|--------------------------------|--------------------------------|
|--------------------------------|--------------------------------|
|-5/7-7-7-7\5\3--7---------------|-5/7-7-7-7\5\3--7---------------|
|-5/7-7-7-7\5\3--5---------------|-5/7-7-7-7\5\3--5---------------|
|-3/5-5-5-5\3\1--3---------------|-3/5-5-5-5\3\1--3---------------|
|--------------------------------|--------------------------------|
|--------------------------------|--------------------------------|
|--------------------------------|--------------------------------|
|-7----7--7--7---7-----7--7--7---|-7----7--7--7---7-----7--7--7---|
|-7----7--7--7---7-----7--7--7---|-7----7--7--7---7-----7--7--7---|
|-5----5--5--5---5-----5--5--5---|-5----5--5--5---5-----5--5--5---|
|--------------------------------|--------------------------10~---|
|--------------------------------|-----------------------8--------|
|--------------------------------|--------------------------------|
|-7----7--7--7---7-----7--7--7---|10----------10------------------|
|-7----7--7--7---7-----7--7--7---|10----------10------------------|
|-5----5--5--5---5-----5--5--5---|-8-----------8------------------|
|--------------------------------|--------------------------------|
|--------------------------------|--------------------------------|
|--------------------------------|--------------------------------|
|-7----7--7--7---7-----7--7--7---|-7----7--7--7---7-----7--7--7---|
|-7----7--7--7---7-----7--7--7---|-7----7--7--7---7-----7--7--7---|
|-5----5--5--5---5-----5--5--5---|-5----5--5--5---5-----5--5--5---|
|--------------------------------|--------------------------12~---|
|--------------------------------|-----------------------10-------|
|--------------------------------|--------------------------------|
|-7----7--7--7---7-----7--7--7---|12----------12------------------|
|-7----7--7--7---7-----7--7--7---|12----------12------------------|
|-5----5--5--5---5-----5--5--5---|10----------10------------------|
|--------------------------------|--------------------------12~---|
|--------------------------------|-----------------------10-------|
|--------------------------------|--------------------------------|
|-7----7--7--7---7-----7--7--7---|12----------12------------------|
|-7----7--7--7---7-----7--7--7---|12----------12------------------|
|-5----5--5--5---5-----5--5--5---|10----------10------------------|
|--------------------------------|--------------------------------|
|--------------------------------|--------------------------------|
|--------------------------------|--------------------------------|
|-3------------3--x-x-x-7---2--3-|-3------------3--x-x-x-7---2--3-|
|-3------------3--x-x-x-7---2--3-|-3------------3--x-x-x-7---2--3-|
|-1------------1--x-x-x-5---0--1-|-1------------1--x-x-x-5---0--1-|
|--------------------------------|--------------------------------|
|--------------------------------|--------------------------------|
|--------------------------------|--------------------------------|
|-3------------3--x-x-x-7---2--3-|-2------------2----2-2-2---2-2--|
|-3------------3--x-x-x-7---2--3-|-2------------2----2-2-2---2-2--|
|-1------------1--x-x-x-5---0--1-|-0------------0----0-0-0---0-0--|
|--------------------------------|--------------------------------|
|--------------------------------|--------------------------------|
|--------------------------------|--------------------------------|
|-7-----7------7--------7-----7--|-3---------3-3-12----12-12-12-12|
|-7-----7------7--------7-----7--|-3---------3-3-12----12-12-12-12|
|-5-----5------5--------5-----5--|-1---------1-1-10----10-10-10-10|
|--------------------------------|--------------------------------|
|--------------------------------|--------------------------------|
|--------------------------------|--------------------------------|
|-7-----7------7--------7-----7--|-3---------3-3-12----12-12-12-12|
|-7-----7------7--------7-----7--|-3---------3-3-12----12-12-12-12|
|-5-----5------5--------5-----5--|-1---------1-1-10----10-10-10-10|
|--------------------------------|--------------------------------|
|--------------------------------|--------------------------------|
|--------------------------------|--------------------------------|
|-7-----7------7--------7-----7--|-3---------3-3-12----12-12-12-12|
|-7-----7------7--------7-----7--|-3---------3-3-12----12-12-12-12|
|-5-----5------5--------5-----5--|-1---------1-1-10----10-10-10-10|
|--------------------------------|--------------------------------|
|--------------------------------|--------------------------------|
|--------------------------------|--------------------------------|
|-7-----7------7--------7-----7--|-3---------3-3-12----12-12-12-12|
|-7-----7------7--------7-----7--|-3---------3-3-12----12-12-12-12|
|-5-----5------5--------5-----5--|-1---------1-1-10----10-10-10-10|
|--------------------------------|--------------------------------|
|--------------------------------|--------------------------------|
|-2---------2--------------------|-2------------------------------|
|--------------------------------|----------2~-2~-----------------|
|--------------------------------|------0-------------------------|
|--------------------------------|--------------------------------|
|--------------------------------|--------------------------------|
|--------------------------------|-----1~-1~------1~-1~---------3~|
|-2------------------------------|-----2--2-------2--2------------|
|-----------2~-2~--2--------2----|--------------------------------|
|-------0--------------0---------|-0----------0---------0--3--0---|
|------------------------------3-|--------------------------------|
|--------------------------------|-12-----10-12~-12~-10-12~-10-5--|
|--------1-----------------------|--------------------------------|
|-----------2---2~---------------|--------------------------------|
|--------------------------------|--------------------------------|
|--------------------------------|--------------------------------|
|--------------------------------|--------------------------------|
|7--8--10-10\5--10~----5---------|------------23-19-19-21-23-19-21|
|--------------------------------|--------------------------------|
|--------------------------------|--------------------------------|
|--------------------------------|--------------------------------|
|------------------------0-0-0-3-|3-0-5-0-5\0---------------------|
|--------------------------------|--------------------------------|
|23-19-21-23-19-21-23-19-15----12|12--10--8--7--10--7--8-7-10~----|
|--------------------------------|--------------------------------|
|--------------------------------|--------------------------------|
|--------------------------------|--------------------------------|
|--------------------------------|--------------------------------|
|--------------------------------|--------------------------------|
|--------------------------------|--------------------------------|
|--------------------------------|--------------------------------|
|--------------------------------|--------------------------------|
|-3------------3--x-x-x-7---2--3-|-3------------3--x-x-x-7---2--3-|
|-3------------3--x-x-x-7---2--3-|-3------------3--x-x-x-7---2--3-|
|-1------------1--x-x-x-5---0--1-|-1------------1--x-x-x-5---0--1-|
|--------------------------------|--------------------------------|
|--------------------------------|--------------------------------|
|--------------------------------|--------------------------------|
|-3------------3--x-x-x-7---2--3-|-2------------2----2-2-2---2-2--|
|-3------------3--x-x-x-7---2--3-|-2------------2----2-2-2---2-2--|
|-1------------1--x-x-x-5---0--1-|-0------------0----0-0-0---0-0--|
|--------------------------------|--------------------------------|
|--------------------------------|--------------------------------|
|--------------------------------|--------------------------------|
|-7-----7------7--------7-----7--|-3---------3-3-12----12-12-12-12|
|-7-----7------7--------7-----7--|-3---------3-3-12----12-12-12-12|
|-5-----5------5--------5-----5--|-1---------1-1-10----10-10-10-10|
|--------------------------------|--------------------------------|
|--------------------------------|--------------------------------|
|--------------------------------|--------------------------------|
|-7-----7------7--------7-----7--|-3---------3-3-12----12-12-12-12|
|-7-----7------7--------7-----7--|-3---------3-3-12----12-12-12-12|
|-5-----5------5--------5-----5--|-1---------1-1-10----10-10-10-10|
|--------------------------------|--------------------------------|
|--------------------------------|--------------------------------|
|--------------------------------|--------------------------------|
|-5------7-----------------------|--------------------------------|
|-5------7-----------------------|--------------------------------|
|-3------5-----------------------|--------------------------------|
Leírta: Szerepi Bálint TELJESEN Jó! 100 %... Olyan formában van direkt leírva, hogy tab-szerkesztőkkel is meg tudd nyitni... Sok Sikert... :) FELTÖLTÖTTE AZ EGÉSZET IDE:NAGY ÁRON (MAGYARORSZÁG DEBRECEN)