The Tea Party - Midsummer Day Chords

 
No chord
Standard guitar tuning:
E
A
D
G
B
E
No capo
E ----------------------------------------0-2-3-2-
B ------3--3-------3--3-------------------3-3-3-3--
G -----2--2-------2--2---------0--0-------2-2-2-2-
D ----4--2-------5--4---------0--0---------------
A ---------------------------3--2----------------
D ----------4-3-0------4-3-0-------4-3-0---------
listen to tab and he rearanges this a few times then E --5-7-10-9--12-11-14-13-11-9--7-5---------------
B --5-7-10-9--12-11-14-13-11-9--7-5---------------
G --7-9-12-11-14-13-13-12-13-11-9-7---------------
D --------------------------------------------
^^ This is from memory and i dont have a guitar on me, I'm just trying to remember the frets, I may be off by one fret, but it sounds just like the tape when played correctly. This is the first accoustic part before he breaks in on electric. Following on that great tab posting this morning on Midsummer's day (WHICH HOPEFULLY WILL BE COMPLETED!!!), here's the lyrics to this kick-ass tune....(BTW< so he sounds like the Lizard King, but so what. If you liked Morrison's vocals, then that's what counts..) Midsummer Day When you've decided to hold on to all that you lost When you've decided to hold on to all that you lost All this is nothing if she comes and tears you apart All this is nothing if you hold the key to her heart If you've decided to change what you thought was your way This new way will take you to her and to midsummer day All this is nothing if she comes and tears you apart All this is nothing if you hold the key to heart And I'm cryin' in the nite And I'm waiting for a call Wont you help me thru tonite Cos I'm waitin' for a call And I'm cryin' in the nite And she's thrown from my mind And the sky is turning black And I'm running out of time You'll shed a last tear If you miss what you thought was your way This new way will take you to her and to midsummer day All this is nothing if she comes and tears you apart All this is nothing if you hold the key to my heart All you are is in you All you are is in you in you in you Ohhhh. Actually what a cool tune - anyone have an interpretation for it??