Thrice - The Whaler Acoustic Chords

 
No chord
Standard guitar tuning:
E
A
D
G
B
E
Capo on 2 fret
E--0-0-0-0-0-0-0-0-0-0-0-0---0-0---0-0-0-0-0-0-0-0-0-0-----------|
B--1-1-1-1-1-1-1-1-1-1-1-1---1-1---1-1-1-1-1-1-1-1-1-1-----------|
G--2-2-2-2-2-2-2-2-2-2-2-2---2-0h2-2-2-2-2-2-2-2-2-2-2-----------|
D--2-2-2-2-2-2-2-2-2-2-2-2---3-3---3-3-3-3-3-3-3-3-3-3-----------|
A--0-0-0-0-0-0-0-0-0-0-0-0---3-3---3-3-3-3-3-3-3-3-3-3-----------|
E----------------------------------------------------------------|
my lover's arms      well they beg me to stay
E--0-0-0-0-0-0-0-0-0-0-0-0---0-0-0-0---0-0-0-0-0-0-0-0-----------|
B--1-1-1-1-1-1-1-1-1-1-1-1---1-1-1-1---1-1-1-1-1-1-1-1-----------|
G--2-2-2-2-2-2-2-2-2-2-2-2---2-2-2-0h2-2-2-2-2-2-2-2-2-----------|
D--2-2-2-2-2-2-2-2-2-2-2-2---3-3-3-3---3-3-3-3-3-3-3-3-----------|
A--0-0-0-0-0-0-0-0-0-0-0-0---3-3-3-3---3-3-3-3-3-3-3-3-----------|
E----------------------------------------------------------------|
I know the stars      they will sweep me away
E--0-0-0-0-0-0-0-0-0-0-0-0---0-0-0-0---0-0-0-0-0-0-0-0-----------|
B--1-1-1-1-1-1-1-1-1-1-1-1---1-1-1-1---1-1-1-1-1-1-1-1-----------|
G--2-2-2-2-2-2-2-2-2-2-2-2---2-2-2-0h2-2-2-2-2-2-2-2-2-----------|
D--2-2-2-2-2-2-2-2-2-2-2-2---3-3-3-3---3-3-3-3-3-3-3-3-----------|
A--0-0-0-0-0-0-0-0-0-0-0-0---3-3-3-3---3-3-3-3-3-3-3-3-----------|
E----------------------------------------------------------------|
my daughter's eyes      they are too tiny seas
E--0-0-0-0-0-0-0-0-0-0-0-0---0-0-0-0-0---0-0-0-0-0-0-0-0---------|
B--0-0-0-0-0-0-0-0-0-0-0-0---1-1-1-1-1---1-1-1-1-1-1-1-1---------|
G--1-1-1-1-1-1-1-1-1-1-1-1---2-2-2-2-0h2-2-2-2-2-2-2-2-2---------|
D--2-2-2-2-2-2-2-2-2-2-2-2---3-3-3-3-3---3-3-3-3-3-3-3-3---------|
A--2-2-2-2-2-2-2-2-2-2-2-2---3-3-3-3-3---3-3-3-3-3-3-3-3---------|
E--0-0-0-0-0-0-0-0-0-0-0-0---------------------------------------|
whose waters will rise      and run down her cheeks
E--0-0-0-0-0-0-0-0-0-0-0-0---0-0-0-0-0-0-0-0-0-0-0-0-0-----------|
B--0-0-0-0-0-0-0-0-0-0-0-0---1-1-1-1-1-1-1-1-1-1-1-1-1-----------|
G--1-1-1-1-1-1-1-1-1-1-1-1---2-2-2-2-2-2-2-2-2-2-2-2-2-----------|
D--2-2-2-2-2-2-2-2-2-2-2-2---3-3-3-3-3-3-3-3-3-3-3-3-3-----------|
A--2-2-2-2-2-2-2-2-2-2-2-2---3-3-3-3-3-3-3-3-3-3-3-3-3-----------|
E--0-0-0-0-0-0-0-0-0-0-0-0---------------------------------------|
father where do you go      so far out upon the sea
E--0-0-0-0-0-0-0-0-0-0-0-0---0-0-0-0-0-0-0-0-0-0-0-0-0-----------|
B--1-1-1-1-1-1-1-1-1-1-1-1---1-1-1-1-1-1-1-1-1-1-1-1-1-----------|
G--2-2-2-2-2-2-2-2-2-2-2-2---0-0-0-0-0-0-0-0-0-0-0-0-0-----------|
D--2-2-2-2-2-2-2-2-2-2-2-2---0-0-0-0-0-0-0-0-0-0-0-0-0-----------|
A--0-0-0-0-0-0-0-0-0-0-0-0---2-2-2-2-2-2-2-2-2-2-2-2-2-----------|
E----------------------------3-3-3-3-3-3-3-3-3-3-3-3-3-----------|
when are you coming home     to me
E--0-0-0-0-0-0-0-0-0-0-0-0--0-0---0-0-0-0-0---0-0-0--------------|
B--1-1-1-1-1-1-1-1-1-1-1-1--1-1---1-1-1-0-0---0-0-0--------------|
G--2-2-2-2-2-2-2-2-2-2-2-2--0-0---0-0-0-0-0---0-0-0--------------|
D--3-3-3-3-3-3-3-3-3-3-3-3--2-0h2-2-2-2-2-0h2-2-2-2--------------|
A---------------------------3-3---3-3-3-2-2---2-2-2--------------|
E---------------------------------------0-0---0-0-0--------------|
darling why do you leave      as the north wind begins to blow
E--0-0-0-0-0-0-0-0-0-0-0-0---0-0-0-0-0-0-0-0-0-0-0-0-0-----------|
B--1-1-1-1-1-1-1-1-1-1-1-1---1-1-1-1-1-1-1-1-1-1-1-1-1-----------|
G--2-2-2-2-2-2-2-2-2-2-2-2---0-0-0-0-0-0-0-0-0-0-0-0-0-----------|
D--2-2-2-2-2-2-2-2-2-2-2-2---0-0-0-0-0-0-0-0-0-0-0-0-0-----------|
A--0-0-0-0-0-0-0-0-0-0-0-0---2-2-2-2-2-2-2-2-2-2-2-2-2-----------|
E----------------------------3-3-3-3-3-3-3-3-3-3-3-3-3-----------|
will you be coming home     to me
E--0-0-0-0-0-0-0-0-0-0-0-0--0-0---0-0-0-0-0---0-0-0--------------|
B--1-1-1-1-1-1-1-1-1-1-1-1--1-1---1-1-1-0-0---0-0-0--------------|
G--2-2-2-2-2-2-2-2-2-2-2-2--0-0---0-0-0-0-0---0-0-0--------------|
D--3-3-3-3-3-3-3-3-3-3-3-3--2-0h2-2-2-2-2-0h2-2-2-2--------------|
A---------------------------3-3---3-3-3-2-2---2-2-2--------------|
E---------------------------------------0-0---0-0-0--------------|
E--0-0-0-0-0-0-0-0-0-0-0-0---0-0-0-0-0-0-0-0-0-0-0-0-------------|
B--1-1-1-1-1-1-1-1-1-1-1-1---1-1-1-1-1-1-0-0-0-0-0-0-------------|
G--2-2-2-2-2-2-2-2-2-2-2-2---2-2-2-2-2-2-2-2-2-2-2-2-------------|
D--2-2-2-2-2-2-2-2-2-2-2-2---3-3-3-3-3-3-3-3-3-3-3-3-------------|
A--0-0-0-0-0-0-0-0-0-0-0-0---3-3-3-3-3-3-3-3-3-3-3-3-------------|
E----------------------------------------------------------------|
the boat and the blade      they are all that I know
E--0-0-0-0-0-0-0-0-0-0-0-0---0-0-0-0-0-0-0-0-0-0-0-0-------------|
B--1-1-1-1-1-1-1-1-1-1-1-1---1-1-1-1-1-1-1-1-1-1-1-1-------------|
G--2-2-2-2-2-2-2-2-2-2-2-2---2-0-2-2-2-2-2-2-2-2-2-2-------------|
D--2-2-2-2-2-2-2-2-2-2-2-2---3-3-3-3-3-3-3-3-3-3-3-3-------------|
A--0-0-0-0-0-0-0-0-0-0-0-0---3-3-3-3-3-3-3-3-3-3-3-3-------------|
E----------------------------------------------------------------|
the sea calls my name      and so I must go
E--0-0-0-0-0-0-0-0-0-0-0-0---1-1-1-1-1-1-1-1-1-1-1-1-------------|
B--1-1-1-1-1-1-1-1-1-1-1-1---3-3-3-3-3-3-3-3-3-3-3-3-------------|
G--2-2-2-2-2-2-2-2-2-2-2-2---3-3-3-3-3-3-3-3-3-3-3-3-------------|
D--2-2-2-2-2-2-2-2-2-2-2-2---3-3-3-3-3-3-3-3-3-3-3-3-------------|
A--0-0-0-0-0-0-0-0-0-0-0-0---1-1-1-1-1-1-1-1-1-1-1-1-------------|
E----------------------------------------------------------------|
while they still sleep      I slip out the door
E--0-0-0-0-0-0-0-0-0-0-0-0---0-0-0-0-0-0-0-0-0-0-0-0-0-----------|
B--0-0-0-0-0-0-0-0-0-0-0-0---1-1-1-1-1-1-1-1-1-1-1-1-1-----------|
G--1-1-1-1-1-1-1-1-1-1-1-1---2-2-2-2-2-2-2-2-2-2-2-2-2-----------|
D--2-2-2-2-2-2-2-2-2-2-2-2---3-3-3-3-3-3-3-3-3-3-3-3-3-----------|
A--2-2-2-2-2-2-2-2-2-2-2-2---3-3-3-3-3-3-3-3-3-3-3-3-3-----------|
E--0-0-0-0-0-0-0-0-0-0-0-0---------------------------------------|
how can I leave      when my anchor's ashore
E--0-0-0-0-0-0-0-0-0-0-0-0---0-0-0-0-0-0-0-0-0-0-0-0-0-----------|
B--0-0-0-0-0-0-0-0-0-0-0-0---1-1-1-1-1-1-1-1-1-1-1-1-1-----------|
G--1-1-1-1-1-1-1-1-1-1-1-1---2-2-2-2-2-2-2-2-2-2-2-2-2-----------|
D--2-2-2-2-2-2-2-2-2-2-2-2---3-3-3-3-3-3-3-3-3-3-3-3-3-----------|
A--2-2-2-2-2-2-2-2-2-2-2-2---3-3-3-3-3-3-3-3-3-3-3-3-3-----------|
E--0-0-0-0-0-0-0-0-0-0-0-0---------------------------------------|
father where do you go      it's farther than I can see
E--0-0-0-0-0-0-0-0-0-0-0-0---0-0-0-0-0-0-0-0-0-0-0-0-0-----------|
B--1-1-1-1-1-1-1-1-1-1-1-1---1-1-1-1-1-1-1-1-1-1-1-1-1-----------|
G--2-2-2-2-2-2-2-2-2-2-2-2---0-0-0-0-0-0-0-0-0-0-0-0-0-----------|
D--2-2-2-2-2-2-2-2-2-2-2-2---0-0-0-0-0-0-0-0-0-0-0-0-0-----------|
A--0-0-0-0-0-0-0-0-0-0-0-0---2-2-2-2-2-2-2-2-2-2-2-2-2-----------|
E----------------------------3-3-3-3-3-3-3-3-3-3-3-3-3-----------|
when are you coming home     to me
E--0-0-0-0-0-0-0-0-0-0-0-0--0-0---0-0-0-0-0---0-0-0--------------|
B--1-1-1-1-1-1-1-1-1-1-1-1--1-1---1-1-1-0-0---0-0-0--------------|
G--2-2-2-2-2-2-2-2-2-2-2-2--0-0---0-0-0-0-0---0-0-0--------------|
D--3-3-3-3-3-3-3-3-3-3-3-3--2-0h2-2-2-2-2-0h2-2-2-2--------------|
A---------------------------3-3---3-3-3-2-2---2-2-2--------------|
E---------------------------------------0-0---0-0-0--------------|
darling why do you go       as the north wind begins to blow
E--0-0-0-0-0-0-0-0-0-0-0-0---0-0-0-0-0-0-0-0-0-0-0-0-0-----------|
B--1-1-1-1-1-1-1-1-1-1-1-1---1-1-1-1-1-1-1-1-1-1-1-1-1-----------|
G--2-2-2-2-2-2-2-2-2-2-2-2---0-0-0-0-0-0-0-0-0-0-0-0-0-----------|
D--2-2-2-2-2-2-2-2-2-2-2-2---0-0-0-0-0-0-0-0-0-0-0-0-0-----------|
A--0-0-0-0-0-0-0-0-0-0-0-0---2-2-2-2-2-2-2-2-2-2-2-2-2-----------|
E----------------------------3-3-3-3-3-3-3-3-3-3-3-3-3-----------|
will you be coming home     to me
E--0-0-0-0-0-0-0-0-0-0-0-0--0-0---0-0-0-0-0---0-0-0--------------|
B--1-1-1-1-1-1-1-1-1-1-1-1--1-1---1-1-1-0-0---0-0-0--------------|
G--2-2-2-2-2-2-2-2-2-2-2-2--0-0---0-0-0-0-0---0-0-0--------------|
D--3-3-3-3-3-3-3-3-3-3-3-3--2-0h2-2-2-2-2-0h2-2-2-2--------------|
A---------------------------3-3---3-3-3-2-2---2-2-2--------------|
E---------------------------------------0-0---0-0-0--------------|
E--1-1-1-1-1-1--0-0-0-0-0-0--0-0-0-0-0-0--0-0-0-0-0-0------------|
B--3-3-3-3-3-3--1-1-1-1-1-1--1-1-1-1-1-1--1-1-1-1-1-1------------|
G--2-2-2-2-2-2--2-2-2-2-2-2--2-2-2-2-2-2--0-0-0-0-0-0------------|
D--0-0-0-0-0-0--3-3-3-3-3-3--2-2-2-2-2-2--0-0-0-0-0-0------------|
A----------------------------0-0-0-0-0-0--2-2-2-2-2-2------------|
E-----------------------------------------3-3-3-3-3-3------------|
E--1-1-1-1-1-1--0-0-0-0-0-0--0-0-0-0-0-0--0-0-0-0-0-0------------|
B--3-3-3-3-3-3--1-1-1-1-1-1--1-1-1-1-1-1--1-1-1-1-1-1------------|
G--2-2-2-2-2-2--2-2-2-2-2-2--2-2-2-2-2-2--0-0-0-0-0-0------------|
D--0-0-0-0-0-0--3-3-3-3-3-3--2-2-2-2-2-2--0-0-0-0-0-0------------|
A----------------------------0-0-0-0-0-0--2-2-2-2-2-2------------|
E-----------------------------------------3-3-3-3-3-3------------|
E--0-------------------------------------------------------------|
B--1-------------------------------------------------------------|
G--2-------------------------------------------------------------|
D--3-------------------------------------------------------------|
A--3-------------------------------------------------------------|
E----------------------------------------------------------------|