Tomte - Du Bist Den Ganzen Weg Gerannt Chords

 
No chord
    
Standard guitar tuning:
E
A
D
G
B
E
No capo
EADGbe
strophe
                             2x
--------------------5---------------|-----------------5------------------------------5--------------|
-------3------------3---------3-----|-----3-----------3-----------5--------3--------3------------5--|
-------4------------4---------4-----|-----4-----------4-----------4--------2--------2------------2--|
-------5------------2---------2-----|-----4-----------4-----------4--------4--------4------------4--|
-------5------------5---------5-----|-----2----------2------------2--------5--------5------------5--|
--------------------------------------|-------------------------------------------------------------|

Refrain

------------------------------------------------------------------------|
------3------------------------3--------------------------3-------------|
------4------------------------2--------------------------4-------------|
------5------------------------2--------------------------4-------------|
------5------------------------4--------------------------2-------------|
-------------------------------5----------------------------------------|