Toto - Rosanna Chords

Refrain Riff
Main Riff
 
         
         
         
         
         
3
2
4
3 fr
         
         
         
         
         
1
3
4
2
1
1
         
         
         
         
         
2
1
3
4
3 fr
         
         
         
         
         
X
X
3
2
1
1
5 fr
         
         
         
         
         
X
X
1
3
4
3
7 fr
         
         
         
         
         
X
4
3
1
2
1

10 fr
         
         
         
         
         
X
1
2
3
4
X
10 fr
         
         
         
         
         
X
1
3
3
3
1
12 fr
         
         
         
         
         
3
2
1
1
1
4
         
         
         
         
         
1
3
4
2
1
1
5 fr
         
         
         
         
         
X
4
3
1
2
1
3 fr
         
         
         
         
         
X
X
1
2
4
3
         
         
         
         
         
X
X
3
2
1
1
8 fr
         
         
         
         
         
X
1
3
3
3
1
10 fr
         
         
         
         
         
4
3
1
1
1
X

10 fr
         
         
         
         
         
3
2
1
1
1
4
         
         
         
         
         
2
3
3 fr
         
         
         
         
         
X
X
2
4
1
7 fr
         
         
         
         
         
X
1
3
4
2
1
2 fr
         
         
         
         
         
X
X
1
3
4
2
3 fr
         
         
         
         
         
X
3
2
4
1
4 fr
         
         
         
         
         
X
4
3
1
2
X

12 fr
         
         
         
         
         
1
3
4
1
1
1

B

variations
         
         
         
         
         
X
1
2
3
4
1
6 fr
         
         
         
         
         
1
3
4
2
1
1
         
         
         
         
         
X
1
4
4
4
X
         
         
         
         
         
X
1
X
3
4
1
3 fr
         
         
         
         
         
3
2
1
1
1
4
8 fr
         
         
         
         
         
X
X
1
3
4
3

10 fr
         
         
         
         
         
X
4
3
1
2
1

E

variations
3 fr
         
         
         
         
         
X
4
3
1
2
1
6 fr
         
         
         
         
         
X
1
2
3
4
1
         
         
         
         
         
X
X
1
2
4
3
3 fr
         
         
         
         
         
X
4
3
1
2
X
8 fr
         
         
         
         
         
4
3
1
1
1
X
8 fr
         
         
         
         
         
3
2
1
1
1
4

11 fr
         
         
         
         
         
1
3
4
2
1
1
         
         
         
         
         
X
X
2
3
1
5 fr
         
         
         
         
         
X
1
3
4
2
1
10 fr
         
         
         
         
         
X
X
1
1
1
5 fr
         
         
         
         
         
X
X
3
2
1
2 fr
         
         
         
         
         
X
4
3
1
2
X
10 fr
         
         
         
         
         
1
3
4
1
1
1

12 fr
         
         
         
         
         
X
X
1
3
4
2
3 fr
         
         
         
         
         
1
3
4
1
1
1
5 fr
         
         
         
         
         
X
X
1
3
4
2
3 fr
         
         
         
         
         
X
X
3
1
1
1
         
         
         
         
         
1
X
2
3
4
         
         
         
         
         
3
1
X
X
X
         
         
         
         
         
2
1
3
4

7 fr
         
         
         
         
         
X
4
3
1
2
X
10 fr
         
         
         
         
         
X
1
3
4
2
1
         
         
         
         
         
X
1
2
3
5 fr
         
         
         
         
         
1
3
4
2
1
1
2 fr
         
         
         
         
         
X
1
1
1
4
         
         
         
         
         
X
X
1
2
2 fr
         
         
         
         
         
3
2
1
1
1
4
7 fr
         
         
         
         
         
X
X
1
3
4
3

9 fr
         
         
         
         
         
X
4
3
1
2
1
12 fr
         
         
         
         
         
X
1
3
3
3
1

A

variations
         
         
         
         
         
X
1
2
3
4
1
6 fr
         
         
         
         
         
1
3
4
2
1
1
         
         
         
         
         
X
1
4
4
4
X
         
         
         
         
         
X
1
X
3
4
1
3 fr
         
         
         
         
         
3
2
1
1
1
4
8 fr
         
         
         
         
         
X
X
1
3
4
3

10 fr
         
         
         
         
         
X
4
3
1
2
1

D

variations
3 fr
         
         
         
         
         
X
4
3
1
2
1
6 fr
         
         
         
         
         
X
1
2
3
4
1
         
         
         
         
         
X
X
1
2
4
3
3 fr
         
         
         
         
         
X
4
3
1
2
X
8 fr
         
         
         
         
         
4
3
1
1
1
X
8 fr
         
         
         
         
         
3
2
1
1
1
4

11 fr
         
         
         
         
         
1
3
4
2
1
1
3 fr
         
         
         
         
         
X
1
3
4
2
1
8 fr
         
         
         
         
         
1
3
4
1
1
1
         
         
         
         
         
X
3
1
X
X
         
         
         
         
         
X
4
1
2
X
8 fr
         
         
         
         
         
X
X
3
1
1
1
10 fr
         
         
         
         
         
X
X
1
3
4
2

12 fr
         
         
         
         
         
X
4
3
1
2
X
         
         
         
         
         
X
X
2
1
1
5 fr
         
         
         
         
         
X
1
3
1
2
1
5 fr
         
         
         
         
         
X
1
X
2
4
3
5 fr
         
         
         
         
         
X
1
3
1
2
4
3 fr
         
         
         
         
         
X
2
1
3
1
4
10 fr
         
         
         
         
         
1
3
X
1
4
1

10 fr
         
         
         
         
         
1
3
1
1
4
1
10 fr
         
         
         
         
         
1
3
1
1
1
1
12 fr
         
         
         
         
         
X
X
1
3
2
2
5 fr
         
         
         
         
         
X
X
No chord
    
Standard guitar tuning:
E
A
D
G
B
E
No capo
     G
E |--3-----------------------------------------------|---------------------|
B |--3-----------------------------------------------|---------------------|
G |--4-----------------------------------------------|---------------------|
D |--5-----------------------------------------------|---------------------|
A |--5-----------------------------------------------|---------------------|
E |--3-----------------------------------------------|---------------------|
All I wanna do when I wake up in the morning is see your eyes, Ro-
     G                     F
E |--3------------------|--1-----------------------------------------------|
B |--3------------------|--1-----------------------------------------------|
G |--4------------------|--2-----------------------------------------------|
D |--5------------------|--3-----------------------------------------------|
A |--5------------------|--3-----------------------------------------------|
E |--3------------------|--1-----------------------------------------------|
-sanna, Rosanna -- I never thought that a girl like you could ever
     Em                   G           B
E |--------------------|--3-----------------------|
B |--------------------|--3-----------3---3-------|
G |--------------------|--4-----------3---3-------|
D |--2-----------------|--5-----------3---3-------|
A |--2-----------------|--5-----------1---1-------|
E |--------------------|--3-----------------------|
care for me, Ro- sanna.
     F
E |--1----------------------------------------------|----------------------|
B |--1----------------------------------------------|----------------------|
G |--2----------------------------------------------|----------------------|
D |--3----------------------------------------------|----------------------|
A |--3----------------------------------------------|----------------------|
E |--1----------------------------------------------|----------------------|
All I wanna do in the middle of the evening is hold you tight, Ro-
     F                   E
E |--1----------------|-------------------------------------------------|
B |--1----------------|--8----------------------------------------------|
G |--2----------------|--8----------------------------------------------|
D |--3----------------|--8----------------------------------------------|
A |--3----------------|--6----------------------------------------------|
E |--1----------------|-------------------------------------------------|
-sanna, Rosanna -- I never knew you were looking for more than
      Dm
E |---5------------------------|
B |---6------------------------|
G |---7------------------------|
D |---7------------------------|
A |---5-------------------5\---|
E |----------------------------|
I could ever be. SECTION B: BRIDGE
    Gm                                   A     B        E
E |--3------------------------------|-------------------------|
B |--3------------------------------|----2-----3--3------8----|
G |--3------------------------------|----2-----3--3------8----|
D |--5------------------------------|----2-----3--3------8----|
A |--5------------------------------|----0-----1--1------6----|
E |--3------------------------------|-------------------------|
Not quite a year since she went a- way, Ro-
     E   B         F               Gm
E |-------6----6-----1----1-------|--3--------------------------|
B |--8----6----6-----1----1-------|--3--------------------------|
G |--8----7----7-----2----2-------|--3--------------------------|
D |--8----8----8-----3----3-------|--5--------------------------|
A |--6----8----8-----3----3-------|--5--------------------------|
E |-------6----6-----1----1-------|--3--------------------------|
-sa - an - na, yeah.... Now she's gone and I
     A      A             D        A        F
E |-------------------------------|--6----6----1----1-------|
B |--2------3---3----------8---8--|--6----6----1----1-------|
G |--2------3---3----------8---8--|--7----7----2----2-------|
D |--2------3---3----------8---8--|--8----8----3----3-------|
A |--0------1---1----------6---6--|--8----8----3----3-------|
E |-------------------------------|--6----6----1----1-------|
have to say . . .
E |---------------------------------------13\---------------|
B |---------------------------------------------------------|
G |----------------10----13-12-11---------------------------|
D |----------10-12----------------12------------------------|
A |----11-12------------------------------------------------|
E |---------------------------------------------------------|
Meet you SECTION C: CHORUS
     B   Cm          Dm7  Cm         E

B F

E |--X----3---3-------10---h11--11-----------|--6---6----1--1------------| B |--3----4---4-------10----X----X----8---8--|--6---6----1--1------------| G |--3----5---5-------10---h12--12----8---8--|--7---7----2--2------------| D |--3----5---5-------10---h10--10----8---8--|--8---8----3--3------------| A |-----------------------------------6---6--|--8---8----3--3------------| E |------------------------------------------|--6---6----1--1------------|
all the way -- Meet you
     B   Cm          Dm7  Cm         E

B F

E |-------3---3-------10---h11--11-----------|--6---6----1--1------------| B |--3----4---4-------10----X---------8--8---|--6---6----1--1------------| G |--3----5---5-------10---h12--12----8--8---|--7---7----2--2------------| D |--3----5---5-------10---h10--10----8--8---|--8---8----3--3------------| A |-----------------------------------6--6---|--8---8----3--3------------| E |------------------------------------------|--6---6----1--1------------|
all the way -- Ro- sa- an- na, yeah . . . [Repeat Chorus] SECTION D: VERSE 2 (shapes as above) GI can see your face still shining through the window on the other side, GRosanna, Rosannna -- IF didn't know that a girl like you could make me Emfeel so sad, RoGsanna . . . B FAll I wanna take is a night and never ever have to compromise, RFosanna, Rosanna -- EI never thought that losing you would ever Dmhurt so bad. [Repeat SECTION B: BRIDGE as above] [Repeat SECTION C: CHORUS as above] SECTION E: SOLOS [Follow same changes as SECTIONS A & B, above] [Repeat SECTIONS B & C, vamp out on G chord....]