Tragically Hip - Are We Family Acoustic Chords

 
         
         
         
         
         
X
X
1
1
1
5 fr
         
         
         
         
         
X
1
3
2
4
1
5 fr
         
         
         
         
         
X
X
2
4
1
5 fr
         
         
         
         
         
X
1
3
2
4
X
2 fr
         
         
         
         
         
X
4
3
1
1
1
9 fr
         
         
         
         
         
X
X
4
3
2
1

10 fr
         
         
         
         
         
1
4
2
3
1
1
12 fr
         
         
         
         
         
X
X
1
3
3
3
14 fr
         
         
         
         
         
X
X
         
         
         
         
         
X
1
2
3
5 fr
         
         
         
         
         
1
3
4
2
1
1
2 fr
         
         
         
         
         
X
1
1
1
4
         
         
         
         
         
X
X
1
2
2 fr
         
         
         
         
         
3
2
1
1
1
4
7 fr
         
         
         
         
         
X
X
1
3
4
3

9 fr
         
         
         
         
         
X
4
3
1
2
1
12 fr
         
         
         
         
         
X
1
3
3
3
1
         
         
         
         
         
3
2
4
3 fr
         
         
         
         
         
1
3
4
2
1
1
         
         
         
         
         
2
1
3
4
3 fr
         
         
         
         
         
X
X
3
2
1
1
5 fr
         
         
         
         
         
X
X
1
3
4
3
7 fr
         
         
         
         
         
X
4
3
1
2
1

10 fr
         
         
         
         
         
X
1
2
3
4
X
10 fr
         
         
         
         
         
X
1
3
3
3
1
12 fr
         
         
         
         
         
3
2
1
1
1
4
         
         
         
         
         
3
2
5 fr
         
         
         
         
         
X
X
1
3
1
4
10 fr
         
         
         
         
         
X
No chord
Standard guitar tuning:
E
A
D
G
B
E
No capo
for the rest of the song.Again, i made this in mind for a rough acoustic version.
Intro/Riff
e|---5----7----5--7-------------5------5------------0---5-----0------0---5|
B|3----3-----3-------5----7--5------7-----7p5---3-----3----3----3-3----3--|
G|------------------------------------------------------------------------|
D|0------------------7--------------------------5-----------------5-------|
A|------------------------------------------------------------------------|
E|------------------------------------------------------------------------|
e|----------------------|
B|-3-0--3/5-------------|
G|----------------------|   Intro x 3
D|-5--------------------|
A|----------------------|
E|----------------------|

Verse 1

It's onD7Mly human to want to inhabit every feeling you've goAt and more Goften than not let's tG6ake it to the Nth degree here he goeD7Ms, 'gimme ten bucks for a head startA' here's where he goeGs, 'the puzzle's pulling aparG6t' and here's the sceD7Mne: your're yelling calmly up the streeAt, 'are we familGy?' or G6what Intro/Riff x 1
e|---5----7----5--7-------------5------5------------0---5-----0------0---5|
B|3----3-----3-------5----7--5------7-----7p5---3-----3----3----3-3----3--|
G|------------------------------------------------------------------------|
D|0------------------7--------------------------0-----------------0-------|
A|------------------------------------------------------------------------|
E|------------------------------------------------------------------------|
e|----------------------|
B|-3-0--3/5-------------|
G|----------------------|   Intro x 1
D|-0--------------------|
A|----------------------|
E|----------------------|

Verse 2

From haD7Mppy-go-lucky to surly-go-crazy the lot A and more Goften than not Admission toG6 the Battles is Free here he goeD7Ms, 'give ya ten bucks for a headstarAt' here's where he goeGs pulling the puzzle apaG6rt and here's the sceD7Mne where you whisper down the crookedest streetA, 'are we famiGly' or wG6hat

Chorus

Are we fGamily when it's only if not whAen Gsisters and brothers wolf wolf lover and the boAy who stamped too many ants? Are we famiD7Mly?
Intro/Riff over solo x 2
e|---5----7----5--7-------------5------5------------0---5-----0------0---5|
B|3----3-----3-------5----7--5------7-----7p5---3-----3----3----3-3----3--|
G|------------------------------------------------------------------------|
D|0------------------7--------------------------0-----------------0-------|
A|------------------------------------------------------------------------|
E|------------------------------------------------------------------------|
e|----------------------|
B|-3-0--3/5-------------|
G|----------------------|   Intro x 2
D|-0--------------------|
A|----------------------|
E|----------------------|

Verse

It's only D7Mhuman to want inherit every feeling you've goAt and like it oGr not let's take it G6to the Nth degree here we gD7Mo give us ten bucks for a headstarAt here's where we gGo the puzzle's pulling G6apart And here's the sceD7Mne: your horse is going the wrong way up the streeAt Are we familyG? or whaG6t

Chorus

Are we fGamily when it's not if but whenA Gtaking care of each other one bullet to another when it's aAll, 'if a song can't save us then nothing can' are we famiAly? or whD7Mat

Outro

Dmaj7, A, G, G6 x (how many you want) END